  0
SECTION
  2
HEADER
  9
$ANGBASE
  50
0.0
  9
$ANGDIR
  70
  1
  9
$MEASUREMENT
  70
0
  0
ENDSEC
  0
SECTION
  2
TABLES
  0
TABLE
  2
LTYPE
  70
4
  0
LTYPE
  5
40F
  2
CONTINUOUS
  70
0
  3
Solid line
  72
65
  73
0
  40
0.0
  0
LTYPE
  5
410
  2
DASHDOT
 70
0
  3
Dash Dot ____ _ ____ _
 72
65
 73
4
 40
2.0
 49
1.25
 49
-0.25
 49
0.25
 49
-0.25
  0
LTYPE
  5
411
  2
DASHED
 70
0
  3
Dashed __ __ __ __ __
 72
65
 73
2
 40
0.75
 49
0.5
 49
-0.25
  0
LTYPE
  5
43B
  2
DOTTED
 70
0
  3
Dotted .  .  .  .
 72
65
 73
2
 40
0.2
 49
0.0
 49
-0.2
  0
ENDTAB
  0
TABLE
  2
STYLE
  70
4
  0
STYLE
  2
KICAD
  70
0
  40
0
  41
1
  42
1
  50
0
  71
0
  3
isocp.shx
  0
STYLE
  2
KICADB
  70
0
  40
0
  41
1
  42
1
  50
0
  71
0
  3
isocp.shx
  0
STYLE
  2
KICADI
  70
0
  40
0
  41
1
  42
1
  50
15
  71
0
  3
isocp.shx
  0
STYLE
  2
KICADBI
  70
0
  40
0
  41
1
  42
1
  50
15
  71
0
  3
isocp.shx
  0
ENDTAB
  0
TABLE
  2
LAYER
  70
30
  0
LAYER
  2
BLACK
  70
0
  62
7
  6
CONTINUOUS
  0
LAYER
  2
GRAY1
  70
0
  62
251
  6
CONTINUOUS
  0
LAYER
  2
GRAY2
  70
0
  62
8
  6
CONTINUOUS
  0
LAYER
  2
GRAY3
  70
0
  62
9
  6
CONTINUOUS
  0
LAYER
  2
WHITE
  70
0
  62
7
  6
CONTINUOUS
  0
LAYER
  2
LYELLOW
  70
0
  62
51
  6
CONTINUOUS
  0
LAYER
  2
BLUE1
  70
0
  62
178
  6
CONTINUOUS
  0
LAYER
  2
GREEN1
  70
0
  62
98
  6
CONTINUOUS
  0
LAYER
  2
CYAN1
  70
0
  62
138
  6
CONTINUOUS
  0
LAYER
  2
RED1
  70
0
  62
18
  6
CONTINUOUS
  0
LAYER
  2
MAGENTA1
  70
0
  62
228
  6
CONTINUOUS
  0
LAYER
  2
BROWN1
  70
0
  62
58
  6
CONTINUOUS
  0
LAYER
  2
BLUE2
  70
0
  62
5
  6
CONTINUOUS
  0
LAYER
  2
GREEN2
  70
0
  62
3
  6
CONTINUOUS
  0
LAYER
  2
CYAN2
  70
0
  62
4
  6
CONTINUOUS
  0
LAYER
  2
RED2
  70
0
  62
1
  6
CONTINUOUS
  0
LAYER
  2
MAGENTA2
  70
0
  62
6
  6
CONTINUOUS
  0
LAYER
  2
BROWN2
  70
0
  62
54
  6
CONTINUOUS
  0
LAYER
  2
BLUE3
  70
0
  62
171
  6
CONTINUOUS
  0
LAYER
  2
GREEN3
  70
0
  62
91
  6
CONTINUOUS
  0
LAYER
  2
CYAN3
  70
0
  62
131
  6
CONTINUOUS
  0
LAYER
  2
RED3
  70
0
  62
11
  6
CONTINUOUS
  0
LAYER
  2
MAGENTA3
  70
0
  62
221
  6
CONTINUOUS
  0
LAYER
  2
YELLOW3
  70
0
  62
2
  6
CONTINUOUS
  0
LAYER
  2
BLUE4
  70
0
  62
5
  6
CONTINUOUS
  0
LAYER
  2
GREEN4
  70
0
  62
3
  6
CONTINUOUS
  0
LAYER
  2
CYAN4
  70
0
  62
4
  6
CONTINUOUS
  0
LAYER
  2
RED4
  70
0
  62
1
  6
CONTINUOUS
  0
LAYER
  2
MAGENTA4
  70
0
  62
6
  6
CONTINUOUS
  0
LAYER
  2
YELLOW4
  70
0
  62
2
  6
CONTINUOUS
  0
ENDTAB
  0
ENDSEC
  0
SECTION
  2
ENTITIES
0
LINE
8
BLACK
6
CONTINUOUS
10
100.202
20
-61.6373
11
100.203
21
-61.6242
0
LINE
8
BLACK
6
CONTINUOUS
10
100.203
20
-61.6242
11
100.206
21
-61.6158
0
LINE
8
BLACK
6
CONTINUOUS
10
100.206
20
-61.6158
11
100.208
21
-61.6069
0
LINE
8
BLACK
6
CONTINUOUS
10
100.208
20
-61.6069
11
100.214
21
-61.5955
0
LINE
8
BLACK
6
CONTINUOUS
10
100.214
20
-61.5955
11
100.219
21
-61.5832
0
LINE
8
BLACK
6
CONTINUOUS
10
100.219
20
-61.5832
11
100.225
21
-61.5765
0
LINE
8
BLACK
6
CONTINUOUS
10
100.225
20
-61.5765
11
100.23
21
-61.5687
0
LINE
8
BLACK
6
CONTINUOUS
10
100.23
20
-61.5687
11
100.24
21
-61.5602
0
LINE
8
BLACK
6
CONTINUOUS
10
100.24
20
-61.5602
11
100.249
21
-61.5504
0
LINE
8
BLACK
6
CONTINUOUS
10
100.249
20
-61.5504
11
100.257
21
-61.5461
0
LINE
8
BLACK
6
CONTINUOUS
10
100.257
20
-61.5461
11
100.263
21
-61.5403
0
LINE
8
BLACK
6
CONTINUOUS
10
100.263
20
-61.5403
11
100.276
21
-61.5358
0
LINE
8
BLACK
6
CONTINUOUS
10
100.276
20
-61.5358
11
100.287
21
-61.5296
0
LINE
8
BLACK
6
CONTINUOUS
10
100.287
20
-61.5296
11
100.296
21
-61.5283
0
LINE
8
BLACK
6
CONTINUOUS
10
100.296
20
-61.5283
11
100.305
21
-61.5252
0
LINE
8
BLACK
6
CONTINUOUS
10
100.305
20
-61.5252
11
100.318
21
-61.5252
0
LINE
8
BLACK
6
CONTINUOUS
10
100.318
20
-61.5252
11
100.331
21
-61.5234
0
LINE
8
BLACK
6
CONTINUOUS
10
100.331
20
-61.5234
11
100.34
21
-61.5252
0
LINE
8
BLACK
6
CONTINUOUS
10
100.34
20
-61.5252
11
100.349
21
-61.5252
0
LINE
8
BLACK
6
CONTINUOUS
10
100.349
20
-61.5252
11
100.361
21
-61.5297
0
LINE
8
BLACK
6
CONTINUOUS
10
100.361
20
-61.5297
11
100.374
21
-61.5325
0
LINE
8
BLACK
6
CONTINUOUS
10
100.374
20
-61.5325
11
100.382
21
-61.5372
0
LINE
8
BLACK
6
CONTINUOUS
10
100.382
20
-61.5372
11
100.39
21
-61.5403
0
LINE
8
BLACK
6
CONTINUOUS
10
100.39
20
-61.5403
11
100.401
21
-61.5488
0
LINE
8
BLACK
6
CONTINUOUS
10
100.401
20
-61.5488
11
100.412
21
-61.5557
0
LINE
8
BLACK
6
CONTINUOUS
10
100.412
20
-61.5557
11
100.417
21
-61.5629
0
LINE
8
BLACK
6
CONTINUOUS
10
100.417
20
-61.5629
11
100.424
21
-61.5687
0
LINE
8
BLACK
6
CONTINUOUS
10
100.424
20
-61.5687
11
100.431
21
-61.5801
0
LINE
8
BLACK
6
CONTINUOUS
10
100.431
20
-61.5801
11
100.439
21
-61.5904
0
LINE
8
BLACK
6
CONTINUOUS
10
100.439
20
-61.5904
11
100.476
21
-61.6591
0
LINE
8
BLACK
6
CONTINUOUS
10
100.476
20
-61.6591
11
100.78
21
-61.8604
0
LINE
8
BLACK
6
CONTINUOUS
10
100.78
20
-61.8604
11
101.062
21
-61.5792
0
LINE
8
BLACK
6
CONTINUOUS
10
101.062
20
-61.5792
11
100.802
21
-61.2693
0
LINE
8
BLACK
6
CONTINUOUS
10
100.802
20
-61.2693
11
100.5
21
-60.4408
0
LINE
8
BLACK
6
CONTINUOUS
10
100.5
20
-60.4408
11
100.5
21
-59.5592
0
LINE
8
BLACK
6
CONTINUOUS
10
100.5
20
-59.5592
11
100.802
21
-58.7307
0
LINE
8
BLACK
6
CONTINUOUS
10
100.802
20
-58.7307
11
101.062
21
-58.4208
0
LINE
8
BLACK
6
CONTINUOUS
10
101.062
20
-58.4208
11
100.78
21
-58.1396
0
LINE
8
BLACK
6
CONTINUOUS
10
100.78
20
-58.1396
11
100.476
21
-58.3408
0
LINE
8
BLACK
6
CONTINUOUS
10
100.476
20
-58.3408
11
100.439
21
-58.4097
0
LINE
8
BLACK
6
CONTINUOUS
10
100.439
20
-58.4097
11
100.431
21
-58.4201
0
LINE
8
BLACK
6
CONTINUOUS
10
100.431
20
-58.4201
11
100.424
21
-58.4316
0
LINE
8
BLACK
6
CONTINUOUS
10
100.424
20
-58.4316
11
100.417
21
-58.4373
0
LINE
8
BLACK
6
CONTINUOUS
10
100.417
20
-58.4373
11
100.412
21
-58.4444
0
LINE
8
BLACK
6
CONTINUOUS
10
100.412
20
-58.4444
11
100.401
21
-58.4514
0
LINE
8
BLACK
6
CONTINUOUS
10
100.401
20
-58.4514
11
100.39
21
-58.4599
0
LINE
8
BLACK
6
CONTINUOUS
10
100.39
20
-58.4599
11
100.382
21
-58.463
0
LINE
8
BLACK
6
CONTINUOUS
10
100.382
20
-58.463
11
100.374
21
-58.4677
0
LINE
8
BLACK
6
CONTINUOUS
10
100.374
20
-58.4677
11
100.361
21
-58.4705
0
LINE
8
BLACK
6
CONTINUOUS
10
100.361
20
-58.4705
11
100.349
21
-58.475
0
LINE
8
BLACK
6
CONTINUOUS
10
100.349
20
-58.475
11
100.34
21
-58.475
0
LINE
8
BLACK
6
CONTINUOUS
10
100.34
20
-58.475
11
100.331
21
-58.4769
0
LINE
8
BLACK
6
CONTINUOUS
10
100.331
20
-58.4769
11
100.318
21
-58.475
0
LINE
8
BLACK
6
CONTINUOUS
10
100.318
20
-58.475
11
100.305
21
-58.475
0
LINE
8
BLACK
6
CONTINUOUS
10
100.305
20
-58.475
11
100.297
21
-58.4719
0
LINE
8
BLACK
6
CONTINUOUS
10
100.297
20
-58.4719
11
100.288
21
-58.4707
0
LINE
8
BLACK
6
CONTINUOUS
10
100.288
20
-58.4707
11
100.276
21
-58.4645
0
LINE
8
BLACK
6
CONTINUOUS
10
100.276
20
-58.4645
11
100.263
21
-58.4599
0
LINE
8
BLACK
6
CONTINUOUS
10
100.263
20
-58.4599
11
100.257
21
-58.4542
0
LINE
8
BLACK
6
CONTINUOUS
10
100.257
20
-58.4542
11
100.249
21
-58.4499
0
LINE
8
BLACK
6
CONTINUOUS
10
100.249
20
-58.4499
11
100.24
21
-58.4401
0
LINE
8
BLACK
6
CONTINUOUS
10
100.24
20
-58.4401
11
100.23
21
-58.4316
0
LINE
8
BLACK
6
CONTINUOUS
10
100.23
20
-58.4316
11
100.225
21
-58.4238
0
LINE
8
BLACK
6
CONTINUOUS
10
100.225
20
-58.4238
11
100.219
21
-58.4171
0
LINE
8
BLACK
6
CONTINUOUS
10
100.219
20
-58.4171
11
100.214
21
-58.4048
0
LINE
8
BLACK
6
CONTINUOUS
10
100.214
20
-58.4048
11
100.208
21
-58.3934
0
LINE
8
BLACK
6
CONTINUOUS
10
100.208
20
-58.3934
11
100.206
21
-58.3845
0
LINE
8
BLACK
6
CONTINUOUS
10
100.206
20
-58.3845
11
100.203
21
-58.3762
0
LINE
8
BLACK
6
CONTINUOUS
10
100.203
20
-58.3762
11
100.202
21
-58.363
0
LINE
8
BLACK
6
CONTINUOUS
10
100.202
20
-58.363
11
100.2
21
-58.3499
0
LINE
8
BLACK
6
CONTINUOUS
10
100.2
20
-58.3499
11
100.2
21
-58.016
0
LINE
8
BLACK
6
CONTINUOUS
10
100.2
20
-58.016
11
100.201
21
-58.0098
0
LINE
8
BLACK
6
CONTINUOUS
10
100.201
20
-58.0098
11
100.201
21
-58.0036
0
LINE
8
BLACK
6
CONTINUOUS
10
100.201
20
-58.0036
11
100.215
21
-57.8572
0
LINE
8
BLACK
6
CONTINUOUS
10
100.215
20
-57.8572
11
100.218
21
-57.8452
0
LINE
8
BLACK
6
CONTINUOUS
10
100.218
20
-57.8452
11
100.22
21
-57.8329
0
LINE
8
BLACK
6
CONTINUOUS
10
100.22
20
-57.8329
11
100.258
21
-57.7074
0
LINE
8
BLACK
6
CONTINUOUS
10
100.258
20
-57.7074
11
100.263
21
-57.6963
0
LINE
8
BLACK
6
CONTINUOUS
10
100.263
20
-57.6963
11
100.267
21
-57.6845
0
LINE
8
BLACK
6
CONTINUOUS
10
100.267
20
-57.6845
11
100.329
21
-57.5688
0
LINE
8
BLACK
6
CONTINUOUS
10
100.329
20
-57.5688
11
100.336
21
-57.559
0
LINE
8
BLACK
6
CONTINUOUS
10
100.336
20
-57.559
11
100.342
21
-57.5482
0
LINE
8
BLACK
6
CONTINUOUS
10
100.342
20
-57.5482
11
100.425
21
-57.4466
0
LINE
8
BLACK
6
CONTINUOUS
10
100.425
20
-57.4466
11
100.435
21
-57.4385
0
LINE
8
BLACK
6
CONTINUOUS
10
100.435
20
-57.4385
11
100.443
21
-57.429
0
LINE
8
BLACK
6
CONTINUOUS
10
100.443
20
-57.429
11
100.544
21
-57.3455
0
LINE
8
BLACK
6
CONTINUOUS
10
100.544
20
-57.3455
11
100.554
21
-57.3394
0
LINE
8
BLACK
6
CONTINUOUS
10
100.554
20
-57.3394
11
100.564
21
-57.3316
0
LINE
8
BLACK
6
CONTINUOUS
10
100.564
20
-57.3316
11
100.679
21
-57.2693
0
LINE
8
BLACK
6
CONTINUOUS
10
100.679
20
-57.2693
11
100.691
21
-57.2654
0
LINE
8
BLACK
6
CONTINUOUS
10
100.691
20
-57.2654
11
100.702
21
-57.2597
0
LINE
8
BLACK
6
CONTINUOUS
10
100.702
20
-57.2597
11
100.827
21
-57.221
0
LINE
8
BLACK
6
CONTINUOUS
10
100.827
20
-57.221
11
100.84
21
-57.2194
0
LINE
8
BLACK
6
CONTINUOUS
10
100.84
20
-57.2194
11
100.852
21
-57.216
0
LINE
8
BLACK
6
CONTINUOUS
10
100.852
20
-57.216
11
100.997
21
-57.2007
0
LINE
8
BLACK
6
CONTINUOUS
10
100.997
20
-57.2007
11
101.004
21
-57.2012
0
LINE
8
BLACK
6
CONTINUOUS
10
101.004
20
-57.2012
11
101.01
21
-57.2
0
LINE
8
BLACK
6
CONTINUOUS
10
101.01
20
-57.2
11
101.35
21
-57.2
0
LINE
8
BLACK
6
CONTINUOUS
10
101.35
20
-57.2
11
101.363
21
-57.2023
0
LINE
8
BLACK
6
CONTINUOUS
10
101.363
20
-57.2023
11
101.376
21
-57.2027
0
LINE
8
BLACK
6
CONTINUOUS
10
101.376
20
-57.2027
11
101.384
21
-57.2061
0
LINE
8
BLACK
6
CONTINUOUS
10
101.384
20
-57.2061
11
101.393
21
-57.2077
0
LINE
8
BLACK
6
CONTINUOUS
10
101.393
20
-57.2077
11
101.405
21
-57.2142
0
LINE
8
BLACK
6
CONTINUOUS
10
101.405
20
-57.2142
11
101.417
21
-57.2192
0
LINE
8
BLACK
6
CONTINUOUS
10
101.417
20
-57.2192
11
101.423
21
-57.2252
0
LINE
8
BLACK
6
CONTINUOUS
10
101.423
20
-57.2252
11
101.431
21
-57.2297
0
LINE
8
BLACK
6
CONTINUOUS
10
101.431
20
-57.2297
11
101.44
21
-57.2398
0
LINE
8
BLACK
6
CONTINUOUS
10
101.44
20
-57.2398
11
101.45
21
-57.2486
0
LINE
8
BLACK
6
CONTINUOUS
10
101.45
20
-57.2486
11
101.454
21
-57.2566
0
LINE
8
BLACK
6
CONTINUOUS
10
101.454
20
-57.2566
11
101.46
21
-57.2635
0
LINE
8
BLACK
6
CONTINUOUS
10
101.46
20
-57.2635
11
101.464
21
-57.2759
0
LINE
8
BLACK
6
CONTINUOUS
10
101.464
20
-57.2759
11
101.47
21
-57.2875
0
LINE
8
BLACK
6
CONTINUOUS
10
101.47
20
-57.2875
11
101.472
21
-57.2964
0
LINE
8
BLACK
6
CONTINUOUS
10
101.472
20
-57.2964
11
101.475
21
-57.3049
0
LINE
8
BLACK
6
CONTINUOUS
10
101.475
20
-57.3049
11
101.475
21
-57.3181
0
LINE
8
BLACK
6
CONTINUOUS
10
101.475
20
-57.3181
11
101.477
21
-57.3312
0
LINE
8
BLACK
6
CONTINUOUS
10
101.477
20
-57.3312
11
101.475
21
-57.34
0
LINE
8
BLACK
6
CONTINUOUS
10
101.475
20
-57.34
11
101.475
21
-57.3491
0
LINE
8
BLACK
6
CONTINUOUS
10
101.475
20
-57.3491
11
101.47
21
-57.3614
0
LINE
8
BLACK
6
CONTINUOUS
10
101.47
20
-57.3614
11
101.468
21
-57.3743
0
LINE
8
BLACK
6
CONTINUOUS
10
101.468
20
-57.3743
11
101.463
21
-57.382
0
LINE
8
BLACK
6
CONTINUOUS
10
101.463
20
-57.382
11
101.46
21
-57.3905
0
LINE
8
BLACK
6
CONTINUOUS
10
101.46
20
-57.3905
11
101.451
21
-57.4006
0
LINE
8
BLACK
6
CONTINUOUS
10
101.451
20
-57.4006
11
101.444
21
-57.4118
0
LINE
8
BLACK
6
CONTINUOUS
10
101.444
20
-57.4118
11
101.437
21
-57.4174
0
LINE
8
BLACK
6
CONTINUOUS
10
101.437
20
-57.4174
11
101.431
21
-57.4243
0
LINE
8
BLACK
6
CONTINUOUS
10
101.431
20
-57.4243
11
101.42
21
-57.4309
0
LINE
8
BLACK
6
CONTINUOUS
10
101.42
20
-57.4309
11
101.41
21
-57.439
0
LINE
8
BLACK
6
CONTINUOUS
10
101.41
20
-57.439
11
101.341
21
-57.4757
0
LINE
8
BLACK
6
CONTINUOUS
10
101.341
20
-57.4757
11
101.14
21
-57.7804
0
LINE
8
BLACK
6
CONTINUOUS
10
101.14
20
-57.7804
11
101.398
21
-58.0384
0
LINE
8
BLACK
6
CONTINUOUS
10
101.398
20
-58.0384
11
102.132
21
-57.6145
0
LINE
8
BLACK
6
CONTINUOUS
10
102.132
20
-57.6145
11
103
21
-57.4614
0
LINE
8
BLACK
6
CONTINUOUS
10
103
20
-57.4614
11
103.868
21
-57.6145
0
LINE
8
BLACK
6
CONTINUOUS
10
103.868
20
-57.6145
11
104.602
21
-58.0384
0
LINE
8
BLACK
6
CONTINUOUS
10
104.602
20
-58.0384
11
104.86
21
-57.7804
0
LINE
8
BLACK
6
CONTINUOUS
10
104.86
20
-57.7804
11
104.659
21
-57.4758
0
LINE
8
BLACK
6
CONTINUOUS
10
104.659
20
-57.4758
11
104.59
21
-57.4391
0
LINE
8
BLACK
6
CONTINUOUS
10
104.59
20
-57.4391
11
104.58
21
-57.4309
0
LINE
8
BLACK
6
CONTINUOUS
10
104.58
20
-57.4309
11
104.568
21
-57.4243
0
LINE
8
BLACK
6
CONTINUOUS
10
104.568
20
-57.4243
11
104.563
21
-57.4174
0
LINE
8
BLACK
6
CONTINUOUS
10
104.563
20
-57.4174
11
104.556
21
-57.4119
0
LINE
8
BLACK
6
CONTINUOUS
10
104.556
20
-57.4119
11
104.549
21
-57.4006
0
LINE
8
BLACK
6
CONTINUOUS
10
104.549
20
-57.4006
11
104.54
21
-57.3905
0
LINE
8
BLACK
6
CONTINUOUS
10
104.54
20
-57.3905
11
104.537
21
-57.3821
0
LINE
8
BLACK
6
CONTINUOUS
10
104.537
20
-57.3821
11
104.532
21
-57.3744
0
LINE
8
BLACK
6
CONTINUOUS
10
104.532
20
-57.3744
11
104.53
21
-57.3615
0
LINE
8
BLACK
6
CONTINUOUS
10
104.53
20
-57.3615
11
104.525
21
-57.3491
0
LINE
8
BLACK
6
CONTINUOUS
10
104.525
20
-57.3491
11
104.525
21
-57.3401
0
LINE
8
BLACK
6
CONTINUOUS
10
104.525
20
-57.3401
11
104.523
21
-57.3313
0
LINE
8
BLACK
6
CONTINUOUS
10
104.523
20
-57.3313
11
104.525
21
-57.3182
0
LINE
8
BLACK
6
CONTINUOUS
10
104.525
20
-57.3182
11
104.525
21
-57.3049
0
LINE
8
BLACK
6
CONTINUOUS
10
104.525
20
-57.3049
11
104.528
21
-57.2965
0
LINE
8
BLACK
6
CONTINUOUS
10
104.528
20
-57.2965
11
104.529
21
-57.2876
0
LINE
8
BLACK
6
CONTINUOUS
10
104.529
20
-57.2876
11
104.536
21
-57.2759
0
LINE
8
BLACK
6
CONTINUOUS
10
104.536
20
-57.2759
11
104.54
21
-57.2635
0
LINE
8
BLACK
6
CONTINUOUS
10
104.54
20
-57.2635
11
104.546
21
-57.2566
0
LINE
8
BLACK
6
CONTINUOUS
10
104.546
20
-57.2566
11
104.55
21
-57.2487
0
LINE
8
BLACK
6
CONTINUOUS
10
104.55
20
-57.2487
11
104.56
21
-57.2399
0
LINE
8
BLACK
6
CONTINUOUS
10
104.56
20
-57.2399
11
104.568
21
-57.2297
0
LINE
8
BLACK
6
CONTINUOUS
10
104.568
20
-57.2297
11
104.576
21
-57.2252
0
LINE
8
BLACK
6
CONTINUOUS
10
104.576
20
-57.2252
11
104.583
21
-57.2192
0
LINE
8
BLACK
6
CONTINUOUS
10
104.583
20
-57.2192
11
104.595
21
-57.2143
0
LINE
8
BLACK
6
CONTINUOUS
10
104.595
20
-57.2143
11
104.607
21
-57.2077
0
LINE
8
BLACK
6
CONTINUOUS
10
104.607
20
-57.2077
11
104.615
21
-57.2061
0
LINE
8
BLACK
6
CONTINUOUS
10
104.615
20
-57.2061
11
104.624
21
-57.2027
0
LINE
8
BLACK
6
CONTINUOUS
10
104.624
20
-57.2027
11
104.637
21
-57.2023
0
LINE
8
BLACK
6
CONTINUOUS
10
104.637
20
-57.2023
11
104.65
21
-57.2
0
LINE
8
BLACK
6
CONTINUOUS
10
104.65
20
-57.2
11
165.35
21
-57.2
0
LINE
8
BLACK
6
CONTINUOUS
10
165.35
20
-57.2
11
165.363
21
-57.2023
0
LINE
8
BLACK
6
CONTINUOUS
10
165.363
20
-57.2023
11
165.376
21
-57.2027
0
LINE
8
BLACK
6
CONTINUOUS
10
165.376
20
-57.2027
11
165.384
21
-57.2061
0
LINE
8
BLACK
6
CONTINUOUS
10
165.384
20
-57.2061
11
165.393
21
-57.2077
0
LINE
8
BLACK
6
CONTINUOUS
10
165.393
20
-57.2077
11
165.405
21
-57.2142
0
LINE
8
BLACK
6
CONTINUOUS
10
165.405
20
-57.2142
11
165.417
21
-57.2192
0
LINE
8
BLACK
6
CONTINUOUS
10
165.417
20
-57.2192
11
165.423
21
-57.2252
0
LINE
8
BLACK
6
CONTINUOUS
10
165.423
20
-57.2252
11
165.431
21
-57.2297
0
LINE
8
BLACK
6
CONTINUOUS
10
165.431
20
-57.2297
11
165.44
21
-57.2398
0
LINE
8
BLACK
6
CONTINUOUS
10
165.44
20
-57.2398
11
165.45
21
-57.2486
0
LINE
8
BLACK
6
CONTINUOUS
10
165.45
20
-57.2486
11
165.454
21
-57.2566
0
LINE
8
BLACK
6
CONTINUOUS
10
165.454
20
-57.2566
11
165.46
21
-57.2635
0
LINE
8
BLACK
6
CONTINUOUS
10
165.46
20
-57.2635
11
165.464
21
-57.2759
0
LINE
8
BLACK
6
CONTINUOUS
10
165.464
20
-57.2759
11
165.47
21
-57.2875
0
LINE
8
BLACK
6
CONTINUOUS
10
165.47
20
-57.2875
11
165.472
21
-57.2964
0
LINE
8
BLACK
6
CONTINUOUS
10
165.472
20
-57.2964
11
165.475
21
-57.3049
0
LINE
8
BLACK
6
CONTINUOUS
10
165.475
20
-57.3049
11
165.475
21
-57.3181
0
LINE
8
BLACK
6
CONTINUOUS
10
165.475
20
-57.3181
11
165.477
21
-57.3312
0
LINE
8
BLACK
6
CONTINUOUS
10
165.477
20
-57.3312
11
165.475
21
-57.34
0
LINE
8
BLACK
6
CONTINUOUS
10
165.475
20
-57.34
11
165.475
21
-57.3491
0
LINE
8
BLACK
6
CONTINUOUS
10
165.475
20
-57.3491
11
165.47
21
-57.3614
0
LINE
8
BLACK
6
CONTINUOUS
10
165.47
20
-57.3614
11
165.468
21
-57.3743
0
LINE
8
BLACK
6
CONTINUOUS
10
165.468
20
-57.3743
11
165.463
21
-57.382
0
LINE
8
BLACK
6
CONTINUOUS
10
165.463
20
-57.382
11
165.46
21
-57.3905
0
LINE
8
BLACK
6
CONTINUOUS
10
165.46
20
-57.3905
11
165.451
21
-57.4006
0
LINE
8
BLACK
6
CONTINUOUS
10
165.451
20
-57.4006
11
165.444
21
-57.4118
0
LINE
8
BLACK
6
CONTINUOUS
10
165.444
20
-57.4118
11
165.437
21
-57.4174
0
LINE
8
BLACK
6
CONTINUOUS
10
165.437
20
-57.4174
11
165.431
21
-57.4243
0
LINE
8
BLACK
6
CONTINUOUS
10
165.431
20
-57.4243
11
165.42
21
-57.4309
0
LINE
8
BLACK
6
CONTINUOUS
10
165.42
20
-57.4309
11
165.41
21
-57.439
0
LINE
8
BLACK
6
CONTINUOUS
10
165.41
20
-57.439
11
165.341
21
-57.4757
0
LINE
8
BLACK
6
CONTINUOUS
10
165.341
20
-57.4757
11
165.14
21
-57.7804
0
LINE
8
BLACK
6
CONTINUOUS
10
165.14
20
-57.7804
11
165.398
21
-58.0384
0
LINE
8
BLACK
6
CONTINUOUS
10
165.398
20
-58.0384
11
166.132
21
-57.6145
0
LINE
8
BLACK
6
CONTINUOUS
10
166.132
20
-57.6145
11
167
21
-57.4614
0
LINE
8
BLACK
6
CONTINUOUS
10
167
20
-57.4614
11
167.868
21
-57.6145
0
LINE
8
BLACK
6
CONTINUOUS
10
167.868
20
-57.6145
11
168.602
21
-58.0384
0
LINE
8
BLACK
6
CONTINUOUS
10
168.602
20
-58.0384
11
168.86
21
-57.7804
0
LINE
8
BLACK
6
CONTINUOUS
10
168.86
20
-57.7804
11
168.659
21
-57.4758
0
LINE
8
BLACK
6
CONTINUOUS
10
168.659
20
-57.4758
11
168.59
21
-57.4391
0
LINE
8
BLACK
6
CONTINUOUS
10
168.59
20
-57.4391
11
168.58
21
-57.4309
0
LINE
8
BLACK
6
CONTINUOUS
10
168.58
20
-57.4309
11
168.568
21
-57.4243
0
LINE
8
BLACK
6
CONTINUOUS
10
168.568
20
-57.4243
11
168.563
21
-57.4174
0
LINE
8
BLACK
6
CONTINUOUS
10
168.563
20
-57.4174
11
168.556
21
-57.4119
0
LINE
8
BLACK
6
CONTINUOUS
10
168.556
20
-57.4119
11
168.549
21
-57.4006
0
LINE
8
BLACK
6
CONTINUOUS
10
168.549
20
-57.4006
11
168.54
21
-57.3905
0
LINE
8
BLACK
6
CONTINUOUS
10
168.54
20
-57.3905
11
168.537
21
-57.3821
0
LINE
8
BLACK
6
CONTINUOUS
10
168.537
20
-57.3821
11
168.532
21
-57.3744
0
LINE
8
BLACK
6
CONTINUOUS
10
168.532
20
-57.3744
11
168.53
21
-57.3615
0
LINE
8
BLACK
6
CONTINUOUS
10
168.53
20
-57.3615
11
168.525
21
-57.3491
0
LINE
8
BLACK
6
CONTINUOUS
10
168.525
20
-57.3491
11
168.525
21
-57.3401
0
LINE
8
BLACK
6
CONTINUOUS
10
168.525
20
-57.3401
11
168.523
21
-57.3313
0
LINE
8
BLACK
6
CONTINUOUS
10
168.523
20
-57.3313
11
168.525
21
-57.3182
0
LINE
8
BLACK
6
CONTINUOUS
10
168.525
20
-57.3182
11
168.525
21
-57.3049
0
LINE
8
BLACK
6
CONTINUOUS
10
168.525
20
-57.3049
11
168.528
21
-57.2965
0
LINE
8
BLACK
6
CONTINUOUS
10
168.528
20
-57.2965
11
168.529
21
-57.2876
0
LINE
8
BLACK
6
CONTINUOUS
10
168.529
20
-57.2876
11
168.536
21
-57.2759
0
LINE
8
BLACK
6
CONTINUOUS
10
168.536
20
-57.2759
11
168.54
21
-57.2635
0
LINE
8
BLACK
6
CONTINUOUS
10
168.54
20
-57.2635
11
168.546
21
-57.2566
0
LINE
8
BLACK
6
CONTINUOUS
10
168.546
20
-57.2566
11
168.55
21
-57.2487
0
LINE
8
BLACK
6
CONTINUOUS
10
168.55
20
-57.2487
11
168.56
21
-57.2399
0
LINE
8
BLACK
6
CONTINUOUS
10
168.56
20
-57.2399
11
168.568
21
-57.2297
0
LINE
8
BLACK
6
CONTINUOUS
10
168.568
20
-57.2297
11
168.576
21
-57.2252
0
LINE
8
BLACK
6
CONTINUOUS
10
168.576
20
-57.2252
11
168.583
21
-57.2192
0
LINE
8
BLACK
6
CONTINUOUS
10
168.583
20
-57.2192
11
168.595
21
-57.2143
0
LINE
8
BLACK
6
CONTINUOUS
10
168.595
20
-57.2143
11
168.607
21
-57.2077
0
LINE
8
BLACK
6
CONTINUOUS
10
168.607
20
-57.2077
11
168.615
21
-57.2061
0
LINE
8
BLACK
6
CONTINUOUS
10
168.615
20
-57.2061
11
168.624
21
-57.2027
0
LINE
8
BLACK
6
CONTINUOUS
10
168.624
20
-57.2027
11
168.637
21
-57.2023
0
LINE
8
BLACK
6
CONTINUOUS
10
168.637
20
-57.2023
11
168.65
21
-57.2
0
LINE
8
BLACK
6
CONTINUOUS
10
168.65
20
-57.2
11
168.984
21
-57.2
0
LINE
8
BLACK
6
CONTINUOUS
10
168.984
20
-57.2
11
168.99
21
-57.2011
0
LINE
8
BLACK
6
CONTINUOUS
10
168.99
20
-57.2011
11
168.996
21
-57.2006
0
LINE
8
BLACK
6
CONTINUOUS
10
168.996
20
-57.2006
11
169.143
21
-57.215
0
LINE
8
BLACK
6
CONTINUOUS
10
169.143
20
-57.215
11
169.155
21
-57.2183
0
LINE
8
BLACK
6
CONTINUOUS
10
169.155
20
-57.2183
11
169.167
21
-57.2198
0
LINE
8
BLACK
6
CONTINUOUS
10
169.167
20
-57.2198
11
169.293
21
-57.2577
0
LINE
8
BLACK
6
CONTINUOUS
10
169.293
20
-57.2577
11
169.304
21
-57.2633
0
LINE
8
BLACK
6
CONTINUOUS
10
169.304
20
-57.2633
11
169.315
21
-57.2671
0
LINE
8
BLACK
6
CONTINUOUS
10
169.315
20
-57.2671
11
169.431
21
-57.3286
0
LINE
8
BLACK
6
CONTINUOUS
10
169.431
20
-57.3286
11
169.441
21
-57.3363
0
LINE
8
BLACK
6
CONTINUOUS
10
169.441
20
-57.3363
11
169.452
21
-57.3423
0
LINE
8
BLACK
6
CONTINUOUS
10
169.452
20
-57.3423
11
169.553
21
-57.4252
0
LINE
8
BLACK
6
CONTINUOUS
10
169.553
20
-57.4252
11
169.562
21
-57.4346
0
LINE
8
BLACK
6
CONTINUOUS
10
169.562
20
-57.4346
11
169.571
21
-57.4426
0
LINE
8
BLACK
6
CONTINUOUS
10
169.571
20
-57.4426
11
169.654
21
-57.5436
0
LINE
8
BLACK
6
CONTINUOUS
10
169.654
20
-57.5436
11
169.661
21
-57.5544
0
LINE
8
BLACK
6
CONTINUOUS
10
169.661
20
-57.5544
11
169.668
21
-57.5641
0
LINE
8
BLACK
6
CONTINUOUS
10
169.668
20
-57.5641
11
169.731
21
-57.6794
0
LINE
8
BLACK
6
CONTINUOUS
10
169.731
20
-57.6794
11
169.735
21
-57.6912
0
LINE
8
BLACK
6
CONTINUOUS
10
169.735
20
-57.6912
11
169.74
21
-57.7023
0
LINE
8
BLACK
6
CONTINUOUS
10
169.74
20
-57.7023
11
169.779
21
-57.8274
0
LINE
8
BLACK
6
CONTINUOUS
10
169.779
20
-57.8274
11
169.781
21
-57.8398
0
LINE
8
BLACK
6
CONTINUOUS
10
169.781
20
-57.8398
11
169.784
21
-57.8517
0
LINE
8
BLACK
6
CONTINUOUS
10
169.784
20
-57.8517
11
169.799
21
-57.9971
0
LINE
8
BLACK
6
CONTINUOUS
10
169.799
20
-57.9971
11
169.799
21
-58.0038
0
LINE
8
BLACK
6
CONTINUOUS
10
169.799
20
-58.0038
11
169.8
21
-58.0104
0
LINE
8
BLACK
6
CONTINUOUS
10
169.8
20
-58.0104
11
169.8
21
-58.3497
0
LINE
8
BLACK
6
CONTINUOUS
10
169.8
20
-58.3497
11
169.798
21
-58.3627
0
LINE
8
BLACK
6
CONTINUOUS
10
169.798
20
-58.3627
11
169.797
21
-58.3758
0
LINE
8
BLACK
6
CONTINUOUS
10
169.797
20
-58.3758
11
169.794
21
-58.3842
0
LINE
8
BLACK
6
CONTINUOUS
10
169.794
20
-58.3842
11
169.792
21
-58.3931
0
LINE
8
BLACK
6
CONTINUOUS
10
169.792
20
-58.3931
11
169.786
21
-58.4045
0
LINE
8
BLACK
6
CONTINUOUS
10
169.786
20
-58.4045
11
169.781
21
-58.4168
0
LINE
8
BLACK
6
CONTINUOUS
10
169.781
20
-58.4168
11
169.775
21
-58.4235
0
LINE
8
BLACK
6
CONTINUOUS
10
169.775
20
-58.4235
11
169.77
21
-58.4313
0
LINE
8
BLACK
6
CONTINUOUS
10
169.77
20
-58.4313
11
169.76
21
-58.4398
0
LINE
8
BLACK
6
CONTINUOUS
10
169.76
20
-58.4398
11
169.751
21
-58.4496
0
LINE
8
BLACK
6
CONTINUOUS
10
169.751
20
-58.4496
11
169.743
21
-58.4539
0
LINE
8
BLACK
6
CONTINUOUS
10
169.743
20
-58.4539
11
169.737
21
-58.4597
0
LINE
8
BLACK
6
CONTINUOUS
10
169.737
20
-58.4597
11
169.724
21
-58.4642
0
LINE
8
BLACK
6
CONTINUOUS
10
169.724
20
-58.4642
11
169.713
21
-58.4704
0
LINE
8
BLACK
6
CONTINUOUS
10
169.713
20
-58.4704
11
169.704
21
-58.4717
0
LINE
8
BLACK
6
CONTINUOUS
10
169.704
20
-58.4717
11
169.695
21
-58.4748
0
LINE
8
BLACK
6
CONTINUOUS
10
169.695
20
-58.4748
11
169.682
21
-58.4748
0
LINE
8
BLACK
6
CONTINUOUS
10
169.682
20
-58.4748
11
169.669
21
-58.4766
0
LINE
8
BLACK
6
CONTINUOUS
10
169.669
20
-58.4766
11
169.66
21
-58.4748
0
LINE
8
BLACK
6
CONTINUOUS
10
169.66
20
-58.4748
11
169.651
21
-58.4748
0
LINE
8
BLACK
6
CONTINUOUS
10
169.651
20
-58.4748
11
169.639
21
-58.4703
0
LINE
8
BLACK
6
CONTINUOUS
10
169.639
20
-58.4703
11
169.626
21
-58.4675
0
LINE
8
BLACK
6
CONTINUOUS
10
169.626
20
-58.4675
11
169.618
21
-58.4628
0
LINE
8
BLACK
6
CONTINUOUS
10
169.618
20
-58.4628
11
169.61
21
-58.4597
0
LINE
8
BLACK
6
CONTINUOUS
10
169.61
20
-58.4597
11
169.599
21
-58.4512
0
LINE
8
BLACK
6
CONTINUOUS
10
169.599
20
-58.4512
11
169.588
21
-58.4443
0
LINE
8
BLACK
6
CONTINUOUS
10
169.588
20
-58.4443
11
169.583
21
-58.4371
0
LINE
8
BLACK
6
CONTINUOUS
10
169.583
20
-58.4371
11
169.576
21
-58.4313
0
LINE
8
BLACK
6
CONTINUOUS
10
169.576
20
-58.4313
11
169.569
21
-58.4199
0
LINE
8
BLACK
6
CONTINUOUS
10
169.569
20
-58.4199
11
169.561
21
-58.4096
0
LINE
8
BLACK
6
CONTINUOUS
10
169.561
20
-58.4096
11
169.524
21
-58.3409
0
LINE
8
BLACK
6
CONTINUOUS
10
169.524
20
-58.3409
11
169.22
21
-58.1396
0
LINE
8
BLACK
6
CONTINUOUS
10
169.22
20
-58.1396
11
168.938
21
-58.4208
0
LINE
8
BLACK
6
CONTINUOUS
10
168.938
20
-58.4208
11
169.198
21
-58.7307
0
LINE
8
BLACK
6
CONTINUOUS
10
169.198
20
-58.7307
11
169.5
21
-59.5592
0
LINE
8
BLACK
6
CONTINUOUS
10
169.5
20
-59.5592
11
169.5
21
-60.4408
0
LINE
8
BLACK
6
CONTINUOUS
10
169.5
20
-60.4408
11
169.198
21
-61.2693
0
LINE
8
BLACK
6
CONTINUOUS
10
169.198
20
-61.2693
11
168.938
21
-61.5792
0
LINE
8
BLACK
6
CONTINUOUS
10
168.938
20
-61.5792
11
169.22
21
-61.8604
0
LINE
8
BLACK
6
CONTINUOUS
10
169.22
20
-61.8604
11
169.524
21
-61.6592
0
LINE
8
BLACK
6
CONTINUOUS
10
169.524
20
-61.6592
11
169.561
21
-61.5903
0
LINE
8
BLACK
6
CONTINUOUS
10
169.561
20
-61.5903
11
169.569
21
-61.5799
0
LINE
8
BLACK
6
CONTINUOUS
10
169.569
20
-61.5799
11
169.576
21
-61.5684
0
LINE
8
BLACK
6
CONTINUOUS
10
169.576
20
-61.5684
11
169.583
21
-61.5627
0
LINE
8
BLACK
6
CONTINUOUS
10
169.583
20
-61.5627
11
169.588
21
-61.5556
0
LINE
8
BLACK
6
CONTINUOUS
10
169.588
20
-61.5556
11
169.599
21
-61.5486
0
LINE
8
BLACK
6
CONTINUOUS
10
169.599
20
-61.5486
11
169.61
21
-61.5401
0
LINE
8
BLACK
6
CONTINUOUS
10
169.61
20
-61.5401
11
169.618
21
-61.537
0
LINE
8
BLACK
6
CONTINUOUS
10
169.618
20
-61.537
11
169.626
21
-61.5323
0
LINE
8
BLACK
6
CONTINUOUS
10
169.626
20
-61.5323
11
169.639
21
-61.5295
0
LINE
8
BLACK
6
CONTINUOUS
10
169.639
20
-61.5295
11
169.651
21
-61.525
0
LINE
8
BLACK
6
CONTINUOUS
10
169.651
20
-61.525
11
169.66
21
-61.525
0
LINE
8
BLACK
6
CONTINUOUS
10
169.66
20
-61.525
11
169.669
21
-61.5231
0
LINE
8
BLACK
6
CONTINUOUS
10
169.669
20
-61.5231
11
169.682
21
-61.525
0
LINE
8
BLACK
6
CONTINUOUS
10
169.682
20
-61.525
11
169.695
21
-61.525
0
LINE
8
BLACK
6
CONTINUOUS
10
169.695
20
-61.525
11
169.703
21
-61.5281
0
LINE
8
BLACK
6
CONTINUOUS
10
169.703
20
-61.5281
11
169.712
21
-61.5293
0
LINE
8
BLACK
6
CONTINUOUS
10
169.712
20
-61.5293
11
169.724
21
-61.5355
0
LINE
8
BLACK
6
CONTINUOUS
10
169.724
20
-61.5355
11
169.737
21
-61.5401
0
LINE
8
BLACK
6
CONTINUOUS
10
169.737
20
-61.5401
11
169.743
21
-61.5458
0
LINE
8
BLACK
6
CONTINUOUS
10
169.743
20
-61.5458
11
169.751
21
-61.5501
0
LINE
8
BLACK
6
CONTINUOUS
10
169.751
20
-61.5501
11
169.76
21
-61.5599
0
LINE
8
BLACK
6
CONTINUOUS
10
169.76
20
-61.5599
11
169.77
21
-61.5684
0
LINE
8
BLACK
6
CONTINUOUS
10
169.77
20
-61.5684
11
169.775
21
-61.5762
0
LINE
8
BLACK
6
CONTINUOUS
10
169.775
20
-61.5762
11
169.781
21
-61.5829
0
LINE
8
BLACK
6
CONTINUOUS
10
169.781
20
-61.5829
11
169.786
21
-61.5952
0
LINE
8
BLACK
6
CONTINUOUS
10
169.786
20
-61.5952
11
169.792
21
-61.6066
0
LINE
8
BLACK
6
CONTINUOUS
10
169.792
20
-61.6066
11
169.794
21
-61.6155
0
LINE
8
BLACK
6
CONTINUOUS
10
169.794
20
-61.6155
11
169.797
21
-61.6238
0
LINE
8
BLACK
6
CONTINUOUS
10
169.797
20
-61.6238
11
169.798
21
-61.637
0
LINE
8
BLACK
6
CONTINUOUS
10
169.798
20
-61.637
11
169.8
21
-61.6501
0
LINE
8
BLACK
6
CONTINUOUS
10
169.8
20
-61.6501
11
169.8
21
-73.625
0
LINE
8
BLACK
6
CONTINUOUS
10
169.8
20
-73.625
11
169.797
21
-73.6413
0
LINE
8
BLACK
6
CONTINUOUS
10
169.797
20
-73.6413
11
169.796
21
-73.6578
0
LINE
8
BLACK
6
CONTINUOUS
10
169.796
20
-73.6578
11
169.793
21
-73.6629
0
LINE
8
BLACK
6
CONTINUOUS
10
169.793
20
-73.6629
11
169.792
21
-73.6684
0
LINE
8
BLACK
6
CONTINUOUS
10
169.792
20
-73.6684
11
169.784
21
-73.6828
0
LINE
8
BLACK
6
CONTINUOUS
10
169.784
20
-73.6828
11
169.777
21
-73.6978
0
LINE
8
BLACK
6
CONTINUOUS
10
169.777
20
-73.6978
11
169.773
21
-73.7018
0
LINE
8
BLACK
6
CONTINUOUS
10
169.773
20
-73.7018
11
169.77
21
-73.7066
0
LINE
8
BLACK
6
CONTINUOUS
10
169.77
20
-73.7066
11
169.758
21
-73.7173
0
LINE
8
BLACK
6
CONTINUOUS
10
169.758
20
-73.7173
11
169.746
21
-73.729
0
LINE
8
BLACK
6
CONTINUOUS
10
169.746
20
-73.729
11
169.741
21
-73.7314
0
LINE
8
BLACK
6
CONTINUOUS
10
169.741
20
-73.7314
11
169.736
21
-73.735
0
LINE
8
BLACK
6
CONTINUOUS
10
169.736
20
-73.735
11
169.721
21
-73.7406
0
LINE
8
BLACK
6
CONTINUOUS
10
169.721
20
-73.7406
11
169.706
21
-73.7476
0
LINE
8
BLACK
6
CONTINUOUS
10
169.706
20
-73.7476
11
169.7
21
-73.7481
0
LINE
8
BLACK
6
CONTINUOUS
10
169.7
20
-73.7481
11
169.695
21
-73.75
0
LINE
8
BLACK
6
CONTINUOUS
10
169.695
20
-73.75
11
169.678
21
-73.75
0
LINE
8
BLACK
6
CONTINUOUS
10
169.678
20
-73.75
11
169.662
21
-73.7515
0
LINE
8
BLACK
6
CONTINUOUS
10
169.662
20
-73.7515
11
169.657
21
-73.75
0
LINE
8
BLACK
6
CONTINUOUS
10
169.657
20
-73.75
11
169.651
21
-73.75
0
LINE
8
BLACK
6
CONTINUOUS
10
169.651
20
-73.75
11
169.635
21
-73.7444
0
LINE
8
BLACK
6
CONTINUOUS
10
169.635
20
-73.7444
11
169.619
21
-73.7401
0
LINE
8
BLACK
6
CONTINUOUS
10
169.619
20
-73.7401
11
169.615
21
-73.7369
0
LINE
8
BLACK
6
CONTINUOUS
10
169.615
20
-73.7369
11
169.609
21
-73.735
0
LINE
8
BLACK
6
CONTINUOUS
10
169.609
20
-73.735
11
169.597
21
-73.7243
0
LINE
8
BLACK
6
CONTINUOUS
10
169.597
20
-73.7243
11
169.583
21
-73.7148
0
LINE
8
BLACK
6
CONTINUOUS
10
169.583
20
-73.7148
11
169.574
21
-73.7054
0
LINE
8
BLACK
6
CONTINUOUS
10
169.574
20
-73.7054
11
169.491
21
-73.6498
0
LINE
8
BLACK
6
CONTINUOUS
10
169.491
20
-73.6498
11
169.398
21
-73.6115
0
LINE
8
BLACK
6
CONTINUOUS
10
169.398
20
-73.6115
11
169.3
21
-73.592
0
LINE
8
BLACK
6
CONTINUOUS
10
169.3
20
-73.592
11
167.338
21
-73.592
0
LINE
8
BLACK
6
CONTINUOUS
10
167.338
20
-73.592
11
167.254
21
-73.6764
0
LINE
8
BLACK
6
CONTINUOUS
10
167.254
20
-73.6764
11
167.254
21
-74.1
0
LINE
8
BLACK
6
CONTINUOUS
10
167.254
20
-74.1
11
169.25
21
-74.1
0
LINE
8
BLACK
6
CONTINUOUS
10
169.25
20
-74.1
11
169.25
21
-75.6
0
LINE
8
BLACK
6
CONTINUOUS
10
169.25
20
-75.6
11
167.254
21
-75.6
0
LINE
8
BLACK
6
CONTINUOUS
10
167.254
20
-75.6
11
167.254
21
-76.0236
0
LINE
8
BLACK
6
CONTINUOUS
10
167.254
20
-76.0236
11
167.338
21
-76.108
0
LINE
8
BLACK
6
CONTINUOUS
10
167.338
20
-76.108
11
169.173
21
-76.108
0
LINE
8
BLACK
6
CONTINUOUS
10
169.173
20
-76.108
11
169.184
21
-76.1099
0
LINE
8
BLACK
6
CONTINUOUS
10
169.184
20
-76.1099
11
169.195
21
-76.1099
0
LINE
8
BLACK
6
CONTINUOUS
10
169.195
20
-76.1099
11
169.205
21
-76.1137
0
LINE
8
BLACK
6
CONTINUOUS
10
169.205
20
-76.1137
11
169.216
21
-76.1157
0
LINE
8
BLACK
6
CONTINUOUS
10
169.216
20
-76.1157
11
169.226
21
-76.1212
0
LINE
8
BLACK
6
CONTINUOUS
10
169.226
20
-76.1212
11
169.236
21
-76.125
0
LINE
8
BLACK
6
CONTINUOUS
10
169.236
20
-76.125
11
169.245
21
-76.1322
0
LINE
8
BLACK
6
CONTINUOUS
10
169.245
20
-76.1322
11
169.255
21
-76.1377
0
LINE
8
BLACK
6
CONTINUOUS
10
169.255
20
-76.1377
11
169.262
21
-76.1462
0
LINE
8
BLACK
6
CONTINUOUS
10
169.262
20
-76.1462
11
169.27
21
-76.1534
0
LINE
8
BLACK
6
CONTINUOUS
10
169.27
20
-76.1534
11
169.276
21
-76.163
0
LINE
8
BLACK
6
CONTINUOUS
10
169.276
20
-76.163
11
169.283
21
-76.1715
0
LINE
8
BLACK
6
CONTINUOUS
10
169.283
20
-76.1715
11
169.287
21
-76.1819
0
LINE
8
BLACK
6
CONTINUOUS
10
169.287
20
-76.1819
11
169.292
21
-76.1916
0
LINE
8
BLACK
6
CONTINUOUS
10
169.292
20
-76.1916
11
169.294
21
-76.2025
0
LINE
8
BLACK
6
CONTINUOUS
10
169.294
20
-76.2025
11
169.298
21
-76.2129
0
LINE
8
BLACK
6
CONTINUOUS
10
169.298
20
-76.2129
11
169.298
21
-76.2241
0
LINE
8
BLACK
6
CONTINUOUS
10
169.298
20
-76.2241
11
169.3
21
-76.235
0
LINE
8
BLACK
6
CONTINUOUS
10
169.3
20
-76.235
11
169.3
21
-78.565
0
LINE
8
BLACK
6
CONTINUOUS
10
169.3
20
-78.565
11
169.298
21
-78.5759
0
LINE
8
BLACK
6
CONTINUOUS
10
169.298
20
-78.5759
11
169.298
21
-78.5871
0
LINE
8
BLACK
6
CONTINUOUS
10
169.298
20
-78.5871
11
169.294
21
-78.5975
0
LINE
8
BLACK
6
CONTINUOUS
10
169.294
20
-78.5975
11
169.292
21
-78.6084
0
LINE
8
BLACK
6
CONTINUOUS
10
169.292
20
-78.6084
11
169.287
21
-78.6181
0
LINE
8
BLACK
6
CONTINUOUS
10
169.287
20
-78.6181
11
169.283
21
-78.6285
0
LINE
8
BLACK
6
CONTINUOUS
10
169.283
20
-78.6285
11
169.276
21
-78.637
0
LINE
8
BLACK
6
CONTINUOUS
10
169.276
20
-78.637
11
169.27
21
-78.6466
0
LINE
8
BLACK
6
CONTINUOUS
10
169.27
20
-78.6466
11
169.262
21
-78.6538
0
LINE
8
BLACK
6
CONTINUOUS
10
169.262
20
-78.6538
11
169.255
21
-78.6623
0
LINE
8
BLACK
6
CONTINUOUS
10
169.255
20
-78.6623
11
169.245
21
-78.6678
0
LINE
8
BLACK
6
CONTINUOUS
10
169.245
20
-78.6678
11
169.237
21
-78.675
0
LINE
8
BLACK
6
CONTINUOUS
10
169.237
20
-78.675
11
169.226
21
-78.6788
0
LINE
8
BLACK
6
CONTINUOUS
10
169.226
20
-78.6788
11
169.216
21
-78.6843
0
LINE
8
BLACK
6
CONTINUOUS
10
169.216
20
-78.6843
11
169.205
21
-78.6863
0
LINE
8
BLACK
6
CONTINUOUS
10
169.205
20
-78.6863
11
169.195
21
-78.6901
0
LINE
8
BLACK
6
CONTINUOUS
10
169.195
20
-78.6901
11
169.184
21
-78.6901
0
LINE
8
BLACK
6
CONTINUOUS
10
169.184
20
-78.6901
11
169.173
21
-78.692
0
LINE
8
BLACK
6
CONTINUOUS
10
169.173
20
-78.692
11
167.338
21
-78.692
0
LINE
8
BLACK
6
CONTINUOUS
10
167.338
20
-78.692
11
167.254
21
-78.7764
0
LINE
8
BLACK
6
CONTINUOUS
10
167.254
20
-78.7764
11
167.254
21
-79.2
0
LINE
8
BLACK
6
CONTINUOUS
10
167.254
20
-79.2
11
169.25
21
-79.2
0
LINE
8
BLACK
6
CONTINUOUS
10
169.25
20
-79.2
11
169.25
21
-80.7
0
LINE
8
BLACK
6
CONTINUOUS
10
169.25
20
-80.7
11
167.254
21
-80.7
0
LINE
8
BLACK
6
CONTINUOUS
10
167.254
20
-80.7
11
167.254
21
-81.1236
0
LINE
8
BLACK
6
CONTINUOUS
10
167.254
20
-81.1236
11
167.338
21
-81.208
0
LINE
8
BLACK
6
CONTINUOUS
10
167.338
20
-81.208
11
169.3
21
-81.208
0
LINE
8
BLACK
6
CONTINUOUS
10
169.3
20
-81.208
11
169.398
21
-81.1885
0
LINE
8
BLACK
6
CONTINUOUS
10
169.398
20
-81.1885
11
169.491
21
-81.1502
0
LINE
8
BLACK
6
CONTINUOUS
10
169.491
20
-81.1502
11
169.574
21
-81.0946
0
LINE
8
BLACK
6
CONTINUOUS
10
169.574
20
-81.0946
11
169.583
21
-81.0852
0
LINE
8
BLACK
6
CONTINUOUS
10
169.583
20
-81.0852
11
169.597
21
-81.0757
0
LINE
8
BLACK
6
CONTINUOUS
10
169.597
20
-81.0757
11
169.609
21
-81.065
0
LINE
8
BLACK
6
CONTINUOUS
10
169.609
20
-81.065
11
169.615
21
-81.0631
0
LINE
8
BLACK
6
CONTINUOUS
10
169.615
20
-81.0631
11
169.619
21
-81.0599
0
LINE
8
BLACK
6
CONTINUOUS
10
169.619
20
-81.0599
11
169.635
21
-81.0556
0
LINE
8
BLACK
6
CONTINUOUS
10
169.635
20
-81.0556
11
169.651
21
-81.05
0
LINE
8
BLACK
6
CONTINUOUS
10
169.651
20
-81.05
11
169.657
21
-81.05
0
LINE
8
BLACK
6
CONTINUOUS
10
169.657
20
-81.05
11
169.662
21
-81.0485
0
LINE
8
BLACK
6
CONTINUOUS
10
169.662
20
-81.0485
11
169.678
21
-81.05
0
LINE
8
BLACK
6
CONTINUOUS
10
169.678
20
-81.05
11
169.695
21
-81.05
0
LINE
8
BLACK
6
CONTINUOUS
10
169.695
20
-81.05
11
169.7
21
-81.0519
0
LINE
8
BLACK
6
CONTINUOUS
10
169.7
20
-81.0519
11
169.706
21
-81.0524
0
LINE
8
BLACK
6
CONTINUOUS
10
169.706
20
-81.0524
11
169.721
21
-81.0594
0
LINE
8
BLACK
6
CONTINUOUS
10
169.721
20
-81.0594
11
169.736
21
-81.065
0
LINE
8
BLACK
6
CONTINUOUS
10
169.736
20
-81.065
11
169.741
21
-81.0686
0
LINE
8
BLACK
6
CONTINUOUS
10
169.741
20
-81.0686
11
169.746
21
-81.071
0
LINE
8
BLACK
6
CONTINUOUS
10
169.746
20
-81.071
11
169.758
21
-81.0827
0
LINE
8
BLACK
6
CONTINUOUS
10
169.758
20
-81.0827
11
169.77
21
-81.0934
0
LINE
8
BLACK
6
CONTINUOUS
10
169.77
20
-81.0934
11
169.773
21
-81.0982
0
LINE
8
BLACK
6
CONTINUOUS
10
169.773
20
-81.0982
11
169.777
21
-81.1022
0
LINE
8
BLACK
6
CONTINUOUS
10
169.777
20
-81.1022
11
169.784
21
-81.1172
0
LINE
8
BLACK
6
CONTINUOUS
10
169.784
20
-81.1172
11
169.792
21
-81.1316
0
LINE
8
BLACK
6
CONTINUOUS
10
169.792
20
-81.1316
11
169.793
21
-81.1371
0
LINE
8
BLACK
6
CONTINUOUS
10
169.793
20
-81.1371
11
169.796
21
-81.1422
0
LINE
8
BLACK
6
CONTINUOUS
10
169.796
20
-81.1422
11
169.797
21
-81.1587
0
LINE
8
BLACK
6
CONTINUOUS
10
169.797
20
-81.1587
11
169.8
21
-81.175
0
LINE
8
BLACK
6
CONTINUOUS
10
169.8
20
-81.175
11
169.8
21
-95.3497
0
LINE
8
BLACK
6
CONTINUOUS
10
169.8
20
-95.3497
11
169.798
21
-95.3627
0
LINE
8
BLACK
6
CONTINUOUS
10
169.798
20
-95.3627
11
169.797
21
-95.3758
0
LINE
8
BLACK
6
CONTINUOUS
10
169.797
20
-95.3758
11
169.794
21
-95.3842
0
LINE
8
BLACK
6
CONTINUOUS
10
169.794
20
-95.3842
11
169.792
21
-95.3931
0
LINE
8
BLACK
6
CONTINUOUS
10
169.792
20
-95.3931
11
169.786
21
-95.4045
0
LINE
8
BLACK
6
CONTINUOUS
10
169.786
20
-95.4045
11
169.781
21
-95.4168
0
LINE
8
BLACK
6
CONTINUOUS
10
169.781
20
-95.4168
11
169.775
21
-95.4235
0
LINE
8
BLACK
6
CONTINUOUS
10
169.775
20
-95.4235
11
169.77
21
-95.4313
0
LINE
8
BLACK
6
CONTINUOUS
10
169.77
20
-95.4313
11
169.76
21
-95.4398
0
LINE
8
BLACK
6
CONTINUOUS
10
169.76
20
-95.4398
11
169.751
21
-95.4496
0
LINE
8
BLACK
6
CONTINUOUS
10
169.751
20
-95.4496
11
169.743
21
-95.4539
0
LINE
8
BLACK
6
CONTINUOUS
10
169.743
20
-95.4539
11
169.737
21
-95.4597
0
LINE
8
BLACK
6
CONTINUOUS
10
169.737
20
-95.4597
11
169.724
21
-95.4642
0
LINE
8
BLACK
6
CONTINUOUS
10
169.724
20
-95.4642
11
169.713
21
-95.4704
0
LINE
8
BLACK
6
CONTINUOUS
10
169.713
20
-95.4704
11
169.704
21
-95.4717
0
LINE
8
BLACK
6
CONTINUOUS
10
169.704
20
-95.4717
11
169.695
21
-95.4748
0
LINE
8
BLACK
6
CONTINUOUS
10
169.695
20
-95.4748
11
169.682
21
-95.4748
0
LINE
8
BLACK
6
CONTINUOUS
10
169.682
20
-95.4748
11
169.669
21
-95.4766
0
LINE
8
BLACK
6
CONTINUOUS
10
169.669
20
-95.4766
11
169.66
21
-95.4748
0
LINE
8
BLACK
6
CONTINUOUS
10
169.66
20
-95.4748
11
169.651
21
-95.4748
0
LINE
8
BLACK
6
CONTINUOUS
10
169.651
20
-95.4748
11
169.639
21
-95.4703
0
LINE
8
BLACK
6
CONTINUOUS
10
169.639
20
-95.4703
11
169.626
21
-95.4675
0
LINE
8
BLACK
6
CONTINUOUS
10
169.626
20
-95.4675
11
169.618
21
-95.4628
0
LINE
8
BLACK
6
CONTINUOUS
10
169.618
20
-95.4628
11
169.61
21
-95.4597
0
LINE
8
BLACK
6
CONTINUOUS
10
169.61
20
-95.4597
11
169.599
21
-95.4512
0
LINE
8
BLACK
6
CONTINUOUS
10
169.599
20
-95.4512
11
169.588
21
-95.4443
0
LINE
8
BLACK
6
CONTINUOUS
10
169.588
20
-95.4443
11
169.583
21
-95.4371
0
LINE
8
BLACK
6
CONTINUOUS
10
169.583
20
-95.4371
11
169.576
21
-95.4313
0
LINE
8
BLACK
6
CONTINUOUS
10
169.576
20
-95.4313
11
169.569
21
-95.4199
0
LINE
8
BLACK
6
CONTINUOUS
10
169.569
20
-95.4199
11
169.561
21
-95.4096
0
LINE
8
BLACK
6
CONTINUOUS
10
169.561
20
-95.4096
11
169.524
21
-95.3409
0
LINE
8
BLACK
6
CONTINUOUS
10
169.524
20
-95.3409
11
169.22
21
-95.1396
0
LINE
8
BLACK
6
CONTINUOUS
10
169.22
20
-95.1396
11
168.938
21
-95.4208
0
LINE
8
BLACK
6
CONTINUOUS
10
168.938
20
-95.4208
11
169.198
21
-95.7307
0
LINE
8
BLACK
6
CONTINUOUS
10
169.198
20
-95.7307
11
169.5
21
-96.5592
0
LINE
8
BLACK
6
CONTINUOUS
10
169.5
20
-96.5592
11
169.5
21
-97.4408
0
LINE
8
BLACK
6
CONTINUOUS
10
169.5
20
-97.4408
11
169.198
21
-98.2693
0
LINE
8
BLACK
6
CONTINUOUS
10
169.198
20
-98.2693
11
168.938
21
-98.5792
0
LINE
8
BLACK
6
CONTINUOUS
10
168.938
20
-98.5792
11
169.22
21
-98.8604
0
LINE
8
BLACK
6
CONTINUOUS
10
169.22
20
-98.8604
11
169.524
21
-98.6592
0
LINE
8
BLACK
6
CONTINUOUS
10
169.524
20
-98.6592
11
169.561
21
-98.5903
0
LINE
8
BLACK
6
CONTINUOUS
10
169.561
20
-98.5903
11
169.569
21
-98.5799
0
LINE
8
BLACK
6
CONTINUOUS
10
169.569
20
-98.5799
11
169.576
21
-98.5684
0
LINE
8
BLACK
6
CONTINUOUS
10
169.576
20
-98.5684
11
169.583
21
-98.5627
0
LINE
8
BLACK
6
CONTINUOUS
10
169.583
20
-98.5627
11
169.588
21
-98.5556
0
LINE
8
BLACK
6
CONTINUOUS
10
169.588
20
-98.5556
11
169.599
21
-98.5486
0
LINE
8
BLACK
6
CONTINUOUS
10
169.599
20
-98.5486
11
169.61
21
-98.5401
0
LINE
8
BLACK
6
CONTINUOUS
10
169.61
20
-98.5401
11
169.618
21
-98.537
0
LINE
8
BLACK
6
CONTINUOUS
10
169.618
20
-98.537
11
169.626
21
-98.5323
0
LINE
8
BLACK
6
CONTINUOUS
10
169.626
20
-98.5323
11
169.639
21
-98.5295
0
LINE
8
BLACK
6
CONTINUOUS
10
169.639
20
-98.5295
11
169.651
21
-98.525
0
LINE
8
BLACK
6
CONTINUOUS
10
169.651
20
-98.525
11
169.66
21
-98.525
0
LINE
8
BLACK
6
CONTINUOUS
10
169.66
20
-98.525
11
169.669
21
-98.5231
0
LINE
8
BLACK
6
CONTINUOUS
10
169.669
20
-98.5231
11
169.682
21
-98.525
0
LINE
8
BLACK
6
CONTINUOUS
10
169.682
20
-98.525
11
169.695
21
-98.525
0
LINE
8
BLACK
6
CONTINUOUS
10
169.695
20
-98.525
11
169.703
21
-98.5281
0
LINE
8
BLACK
6
CONTINUOUS
10
169.703
20
-98.5281
11
169.712
21
-98.5293
0
LINE
8
BLACK
6
CONTINUOUS
10
169.712
20
-98.5293
11
169.724
21
-98.5355
0
LINE
8
BLACK
6
CONTINUOUS
10
169.724
20
-98.5355
11
169.737
21
-98.5401
0
LINE
8
BLACK
6
CONTINUOUS
10
169.737
20
-98.5401
11
169.743
21
-98.5458
0
LINE
8
BLACK
6
CONTINUOUS
10
169.743
20
-98.5458
11
169.751
21
-98.5501
0
LINE
8
BLACK
6
CONTINUOUS
10
169.751
20
-98.5501
11
169.76
21
-98.5599
0
LINE
8
BLACK
6
CONTINUOUS
10
169.76
20
-98.5599
11
169.77
21
-98.5684
0
LINE
8
BLACK
6
CONTINUOUS
10
169.77
20
-98.5684
11
169.775
21
-98.5762
0
LINE
8
BLACK
6
CONTINUOUS
10
169.775
20
-98.5762
11
169.781
21
-98.5829
0
LINE
8
BLACK
6
CONTINUOUS
10
169.781
20
-98.5829
11
169.786
21
-98.5952
0
LINE
8
BLACK
6
CONTINUOUS
10
169.786
20
-98.5952
11
169.792
21
-98.6066
0
LINE
8
BLACK
6
CONTINUOUS
10
169.792
20
-98.6066
11
169.794
21
-98.6155
0
LINE
8
BLACK
6
CONTINUOUS
10
169.794
20
-98.6155
11
169.797
21
-98.6238
0
LINE
8
BLACK
6
CONTINUOUS
10
169.797
20
-98.6238
11
169.798
21
-98.637
0
LINE
8
BLACK
6
CONTINUOUS
10
169.798
20
-98.637
11
169.8
21
-98.6501
0
LINE
8
BLACK
6
CONTINUOUS
10
169.8
20
-98.6501
11
169.8
21
-98.984
0
LINE
8
BLACK
6
CONTINUOUS
10
169.8
20
-98.984
11
169.799
21
-98.9902
0
LINE
8
BLACK
6
CONTINUOUS
10
169.799
20
-98.9902
11
169.799
21
-98.9964
0
LINE
8
BLACK
6
CONTINUOUS
10
169.799
20
-98.9964
11
169.785
21
-99.1428
0
LINE
8
BLACK
6
CONTINUOUS
10
169.785
20
-99.1428
11
169.782
21
-99.1548
0
LINE
8
BLACK
6
CONTINUOUS
10
169.782
20
-99.1548
11
169.78
21
-99.1671
0
LINE
8
BLACK
6
CONTINUOUS
10
169.78
20
-99.1671
11
169.742
21
-99.2926
0
LINE
8
BLACK
6
CONTINUOUS
10
169.742
20
-99.2926
11
169.737
21
-99.3037
0
LINE
8
BLACK
6
CONTINUOUS
10
169.737
20
-99.3037
11
169.733
21
-99.3155
0
LINE
8
BLACK
6
CONTINUOUS
10
169.733
20
-99.3155
11
169.671
21
-99.4312
0
LINE
8
BLACK
6
CONTINUOUS
10
169.671
20
-99.4312
11
169.664
21
-99.441
0
LINE
8
BLACK
6
CONTINUOUS
10
169.664
20
-99.441
11
169.658
21
-99.4518
0
LINE
8
BLACK
6
CONTINUOUS
10
169.658
20
-99.4518
11
169.575
21
-99.5534
0
LINE
8
BLACK
6
CONTINUOUS
10
169.575
20
-99.5534
11
169.565
21
-99.5615
0
LINE
8
BLACK
6
CONTINUOUS
10
169.565
20
-99.5615
11
169.557
21
-99.571
0
LINE
8
BLACK
6
CONTINUOUS
10
169.557
20
-99.571
11
169.456
21
-99.6545
0
LINE
8
BLACK
6
CONTINUOUS
10
169.456
20
-99.6545
11
169.446
21
-99.6606
0
LINE
8
BLACK
6
CONTINUOUS
10
169.446
20
-99.6606
11
169.436
21
-99.6684
0
LINE
8
BLACK
6
CONTINUOUS
10
169.436
20
-99.6684
11
169.321
21
-99.7307
0
LINE
8
BLACK
6
CONTINUOUS
10
169.321
20
-99.7307
11
169.309
21
-99.7346
0
LINE
8
BLACK
6
CONTINUOUS
10
169.309
20
-99.7346
11
169.298
21
-99.7403
0
LINE
8
BLACK
6
CONTINUOUS
10
169.298
20
-99.7403
11
169.173
21
-99.779
0
LINE
8
BLACK
6
CONTINUOUS
10
169.173
20
-99.779
11
169.16
21
-99.7806
0
LINE
8
BLACK
6
CONTINUOUS
10
169.16
20
-99.7806
11
169.148
21
-99.784
0
LINE
8
BLACK
6
CONTINUOUS
10
169.148
20
-99.784
11
169.003
21
-99.7993
0
LINE
8
BLACK
6
CONTINUOUS
10
169.003
20
-99.7993
11
168.996
21
-99.7988
0
LINE
8
BLACK
6
CONTINUOUS
10
168.996
20
-99.7988
11
168.99
21
-99.8
0
LINE
8
BLACK
6
CONTINUOUS
10
168.99
20
-99.8
11
168.65
21
-99.8
0
LINE
8
BLACK
6
CONTINUOUS
10
168.65
20
-99.8
11
168.637
21
-99.7977
0
LINE
8
BLACK
6
CONTINUOUS
10
168.637
20
-99.7977
11
168.624
21
-99.7973
0
LINE
8
BLACK
6
CONTINUOUS
10
168.624
20
-99.7973
11
168.616
21
-99.7939
0
LINE
8
BLACK
6
CONTINUOUS
10
168.616
20
-99.7939
11
168.607
21
-99.7923
0
LINE
8
BLACK
6
CONTINUOUS
10
168.607
20
-99.7923
11
168.595
21
-99.7858
0
LINE
8
BLACK
6
CONTINUOUS
10
168.595
20
-99.7858
11
168.583
21
-99.7808
0
LINE
8
BLACK
6
CONTINUOUS
10
168.583
20
-99.7808
11
168.577
21
-99.7748
0
LINE
8
BLACK
6
CONTINUOUS
10
168.577
20
-99.7748
11
168.569
21
-99.7703
0
LINE
8
BLACK
6
CONTINUOUS
10
168.569
20
-99.7703
11
168.56
21
-99.7602
0
LINE
8
BLACK
6
CONTINUOUS
10
168.56
20
-99.7602
11
168.55
21
-99.7514
0
LINE
8
BLACK
6
CONTINUOUS
10
168.55
20
-99.7514
11
168.546
21
-99.7434
0
LINE
8
BLACK
6
CONTINUOUS
10
168.546
20
-99.7434
11
168.54
21
-99.7365
0
LINE
8
BLACK
6
CONTINUOUS
10
168.54
20
-99.7365
11
168.536
21
-99.7241
0
LINE
8
BLACK
6
CONTINUOUS
10
168.536
20
-99.7241
11
168.53
21
-99.7125
0
LINE
8
BLACK
6
CONTINUOUS
10
168.53
20
-99.7125
11
168.528
21
-99.7036
0
LINE
8
BLACK
6
CONTINUOUS
10
168.528
20
-99.7036
11
168.525
21
-99.6951
0
LINE
8
BLACK
6
CONTINUOUS
10
168.525
20
-99.6951
11
168.525
21
-99.6819
0
LINE
8
BLACK
6
CONTINUOUS
10
168.525
20
-99.6819
11
168.523
21
-99.6688
0
LINE
8
BLACK
6
CONTINUOUS
10
168.523
20
-99.6688
11
168.525
21
-99.66
0
LINE
8
BLACK
6
CONTINUOUS
10
168.525
20
-99.66
11
168.525
21
-99.6509
0
LINE
8
BLACK
6
CONTINUOUS
10
168.525
20
-99.6509
11
168.53
21
-99.6386
0
LINE
8
BLACK
6
CONTINUOUS
10
168.53
20
-99.6386
11
168.532
21
-99.6257
0
LINE
8
BLACK
6
CONTINUOUS
10
168.532
20
-99.6257
11
168.537
21
-99.618
0
LINE
8
BLACK
6
CONTINUOUS
10
168.537
20
-99.618
11
168.54
21
-99.6095
0
LINE
8
BLACK
6
CONTINUOUS
10
168.54
20
-99.6095
11
168.549
21
-99.5994
0
LINE
8
BLACK
6
CONTINUOUS
10
168.549
20
-99.5994
11
168.556
21
-99.5882
0
LINE
8
BLACK
6
CONTINUOUS
10
168.556
20
-99.5882
11
168.563
21
-99.5826
0
LINE
8
BLACK
6
CONTINUOUS
10
168.563
20
-99.5826
11
168.569
21
-99.5757
0
LINE
8
BLACK
6
CONTINUOUS
10
168.569
20
-99.5757
11
168.58
21
-99.5691
0
LINE
8
BLACK
6
CONTINUOUS
10
168.58
20
-99.5691
11
168.59
21
-99.561
0
LINE
8
BLACK
6
CONTINUOUS
10
168.59
20
-99.561
11
168.659
21
-99.5243
0
LINE
8
BLACK
6
CONTINUOUS
10
168.659
20
-99.5243
11
168.86
21
-99.2196
0
LINE
8
BLACK
6
CONTINUOUS
10
168.86
20
-99.2196
11
168.602
21
-98.9616
0
LINE
8
BLACK
6
CONTINUOUS
10
168.602
20
-98.9616
11
167.868
21
-99.3855
0
LINE
8
BLACK
6
CONTINUOUS
10
167.868
20
-99.3855
11
167
21
-99.5386
0
LINE
8
BLACK
6
CONTINUOUS
10
167
20
-99.5386
11
166.132
21
-99.3855
0
LINE
8
BLACK
6
CONTINUOUS
10
166.132
20
-99.3855
11
165.398
21
-98.9616
0
LINE
8
BLACK
6
CONTINUOUS
10
165.398
20
-98.9616
11
165.14
21
-99.2196
0
LINE
8
BLACK
6
CONTINUOUS
10
165.14
20
-99.2196
11
165.341
21
-99.5242
0
LINE
8
BLACK
6
CONTINUOUS
10
165.341
20
-99.5242
11
165.41
21
-99.5609
0
LINE
8
BLACK
6
CONTINUOUS
10
165.41
20
-99.5609
11
165.42
21
-99.5691
0
LINE
8
BLACK
6
CONTINUOUS
10
165.42
20
-99.5691
11
165.432
21
-99.5757
0
LINE
8
BLACK
6
CONTINUOUS
10
165.432
20
-99.5757
11
165.437
21
-99.5826
0
LINE
8
BLACK
6
CONTINUOUS
10
165.437
20
-99.5826
11
165.444
21
-99.5881
0
LINE
8
BLACK
6
CONTINUOUS
10
165.444
20
-99.5881
11
165.451
21
-99.5994
0
LINE
8
BLACK
6
CONTINUOUS
10
165.451
20
-99.5994
11
165.46
21
-99.6095
0
LINE
8
BLACK
6
CONTINUOUS
10
165.46
20
-99.6095
11
165.463
21
-99.6179
0
LINE
8
BLACK
6
CONTINUOUS
10
165.463
20
-99.6179
11
165.468
21
-99.6256
0
LINE
8
BLACK
6
CONTINUOUS
10
165.468
20
-99.6256
11
165.47
21
-99.6385
0
LINE
8
BLACK
6
CONTINUOUS
10
165.47
20
-99.6385
11
165.475
21
-99.6509
0
LINE
8
BLACK
6
CONTINUOUS
10
165.475
20
-99.6509
11
165.475
21
-99.6599
0
LINE
8
BLACK
6
CONTINUOUS
10
165.475
20
-99.6599
11
165.477
21
-99.6687
0
LINE
8
BLACK
6
CONTINUOUS
10
165.477
20
-99.6687
11
165.475
21
-99.6818
0
LINE
8
BLACK
6
CONTINUOUS
10
165.475
20
-99.6818
11
165.475
21
-99.6951
0
LINE
8
BLACK
6
CONTINUOUS
10
165.475
20
-99.6951
11
165.472
21
-99.7035
0
LINE
8
BLACK
6
CONTINUOUS
10
165.472
20
-99.7035
11
165.471
21
-99.7124
0
LINE
8
BLACK
6
CONTINUOUS
10
165.471
20
-99.7124
11
165.464
21
-99.7241
0
LINE
8
BLACK
6
CONTINUOUS
10
165.464
20
-99.7241
11
165.46
21
-99.7365
0
LINE
8
BLACK
6
CONTINUOUS
10
165.46
20
-99.7365
11
165.454
21
-99.7434
0
LINE
8
BLACK
6
CONTINUOUS
10
165.454
20
-99.7434
11
165.45
21
-99.7513
0
LINE
8
BLACK
6
CONTINUOUS
10
165.45
20
-99.7513
11
165.44
21
-99.7601
0
LINE
8
BLACK
6
CONTINUOUS
10
165.44
20
-99.7601
11
165.432
21
-99.7703
0
LINE
8
BLACK
6
CONTINUOUS
10
165.432
20
-99.7703
11
165.424
21
-99.7748
0
LINE
8
BLACK
6
CONTINUOUS
10
165.424
20
-99.7748
11
165.417
21
-99.7808
0
LINE
8
BLACK
6
CONTINUOUS
10
165.417
20
-99.7808
11
165.405
21
-99.7857
0
LINE
8
BLACK
6
CONTINUOUS
10
165.405
20
-99.7857
11
165.393
21
-99.7923
0
LINE
8
BLACK
6
CONTINUOUS
10
165.393
20
-99.7923
11
165.385
21
-99.7939
0
LINE
8
BLACK
6
CONTINUOUS
10
165.385
20
-99.7939
11
165.376
21
-99.7973
0
LINE
8
BLACK
6
CONTINUOUS
10
165.376
20
-99.7973
11
165.363
21
-99.7977
0
LINE
8
BLACK
6
CONTINUOUS
10
165.363
20
-99.7977
11
165.35
21
-99.8
0
LINE
8
BLACK
6
CONTINUOUS
10
165.35
20
-99.8
11
104.65
21
-99.8
0
LINE
8
BLACK
6
CONTINUOUS
10
104.65
20
-99.8
11
104.637
21
-99.7977
0
LINE
8
BLACK
6
CONTINUOUS
10
104.637
20
-99.7977
11
104.624
21
-99.7973
0
LINE
8
BLACK
6
CONTINUOUS
10
104.624
20
-99.7973
11
104.616
21
-99.7939
0
LINE
8
BLACK
6
CONTINUOUS
10
104.616
20
-99.7939
11
104.607
21
-99.7923
0
LINE
8
BLACK
6
CONTINUOUS
10
104.607
20
-99.7923
11
104.595
21
-99.7858
0
LINE
8
BLACK
6
CONTINUOUS
10
104.595
20
-99.7858
11
104.583
21
-99.7808
0
LINE
8
BLACK
6
CONTINUOUS
10
104.583
20
-99.7808
11
104.577
21
-99.7748
0
LINE
8
BLACK
6
CONTINUOUS
10
104.577
20
-99.7748
11
104.569
21
-99.7703
0
LINE
8
BLACK
6
CONTINUOUS
10
104.569
20
-99.7703
11
104.56
21
-99.7602
0
LINE
8
BLACK
6
CONTINUOUS
10
104.56
20
-99.7602
11
104.55
21
-99.7514
0
LINE
8
BLACK
6
CONTINUOUS
10
104.55
20
-99.7514
11
104.546
21
-99.7434
0
LINE
8
BLACK
6
CONTINUOUS
10
104.546
20
-99.7434
11
104.54
21
-99.7365
0
LINE
8
BLACK
6
CONTINUOUS
10
104.54
20
-99.7365
11
104.536
21
-99.7241
0
LINE
8
BLACK
6
CONTINUOUS
10
104.536
20
-99.7241
11
104.53
21
-99.7125
0
LINE
8
BLACK
6
CONTINUOUS
10
104.53
20
-99.7125
11
104.528
21
-99.7036
0
LINE
8
BLACK
6
CONTINUOUS
10
104.528
20
-99.7036
11
104.525
21
-99.6951
0
LINE
8
BLACK
6
CONTINUOUS
10
104.525
20
-99.6951
11
104.525
21
-99.6819
0
LINE
8
BLACK
6
CONTINUOUS
10
104.525
20
-99.6819
11
104.523
21
-99.6688
0
LINE
8
BLACK
6
CONTINUOUS
10
104.523
20
-99.6688
11
104.525
21
-99.66
0
LINE
8
BLACK
6
CONTINUOUS
10
104.525
20
-99.66
11
104.525
21
-99.6509
0
LINE
8
BLACK
6
CONTINUOUS
10
104.525
20
-99.6509
11
104.53
21
-99.6386
0
LINE
8
BLACK
6
CONTINUOUS
10
104.53
20
-99.6386
11
104.532
21
-99.6257
0
LINE
8
BLACK
6
CONTINUOUS
10
104.532
20
-99.6257
11
104.537
21
-99.618
0
LINE
8
BLACK
6
CONTINUOUS
10
104.537
20
-99.618
11
104.54
21
-99.6095
0
LINE
8
BLACK
6
CONTINUOUS
10
104.54
20
-99.6095
11
104.549
21
-99.5994
0
LINE
8
BLACK
6
CONTINUOUS
10
104.549
20
-99.5994
11
104.556
21
-99.5882
0
LINE
8
BLACK
6
CONTINUOUS
10
104.556
20
-99.5882
11
104.563
21
-99.5826
0
LINE
8
BLACK
6
CONTINUOUS
10
104.563
20
-99.5826
11
104.569
21
-99.5757
0
LINE
8
BLACK
6
CONTINUOUS
10
104.569
20
-99.5757
11
104.58
21
-99.5691
0
LINE
8
BLACK
6
CONTINUOUS
10
104.58
20
-99.5691
11
104.59
21
-99.561
0
LINE
8
BLACK
6
CONTINUOUS
10
104.59
20
-99.561
11
104.659
21
-99.5243
0
LINE
8
BLACK
6
CONTINUOUS
10
104.659
20
-99.5243
11
104.86
21
-99.2196
0
LINE
8
BLACK
6
CONTINUOUS
10
104.86
20
-99.2196
11
104.602
21
-98.9616
0
LINE
8
BLACK
6
CONTINUOUS
10
104.602
20
-98.9616
11
103.868
21
-99.3855
0
LINE
8
BLACK
6
CONTINUOUS
10
103.868
20
-99.3855
11
103
21
-99.5386
0
LINE
8
BLACK
6
CONTINUOUS
10
103
20
-99.5386
11
102.132
21
-99.3855
0
LINE
8
BLACK
6
CONTINUOUS
10
102.132
20
-99.3855
11
101.398
21
-98.9616
0
LINE
8
BLACK
6
CONTINUOUS
10
101.398
20
-98.9616
11
101.14
21
-99.2196
0
LINE
8
BLACK
6
CONTINUOUS
10
101.14
20
-99.2196
11
101.341
21
-99.5242
0
LINE
8
BLACK
6
CONTINUOUS
10
101.341
20
-99.5242
11
101.41
21
-99.5609
0
LINE
8
BLACK
6
CONTINUOUS
10
101.41
20
-99.5609
11
101.42
21
-99.5691
0
LINE
8
BLACK
6
CONTINUOUS
10
101.42
20
-99.5691
11
101.432
21
-99.5757
0
LINE
8
BLACK
6
CONTINUOUS
10
101.432
20
-99.5757
11
101.437
21
-99.5826
0
LINE
8
BLACK
6
CONTINUOUS
10
101.437
20
-99.5826
11
101.444
21
-99.5881
0
LINE
8
BLACK
6
CONTINUOUS
10
101.444
20
-99.5881
11
101.451
21
-99.5994
0
LINE
8
BLACK
6
CONTINUOUS
10
101.451
20
-99.5994
11
101.46
21
-99.6095
0
LINE
8
BLACK
6
CONTINUOUS
10
101.46
20
-99.6095
11
101.463
21
-99.6179
0
LINE
8
BLACK
6
CONTINUOUS
10
101.463
20
-99.6179
11
101.468
21
-99.6256
0
LINE
8
BLACK
6
CONTINUOUS
10
101.468
20
-99.6256
11
101.47
21
-99.6385
0
LINE
8
BLACK
6
CONTINUOUS
10
101.47
20
-99.6385
11
101.475
21
-99.6509
0
LINE
8
BLACK
6
CONTINUOUS
10
101.475
20
-99.6509
11
101.475
21
-99.6599
0
LINE
8
BLACK
6
CONTINUOUS
10
101.475
20
-99.6599
11
101.477
21
-99.6687
0
LINE
8
BLACK
6
CONTINUOUS
10
101.477
20
-99.6687
11
101.475
21
-99.6818
0
LINE
8
BLACK
6
CONTINUOUS
10
101.475
20
-99.6818
11
101.475
21
-99.6951
0
LINE
8
BLACK
6
CONTINUOUS
10
101.475
20
-99.6951
11
101.472
21
-99.7035
0
LINE
8
BLACK
6
CONTINUOUS
10
101.472
20
-99.7035
11
101.471
21
-99.7124
0
LINE
8
BLACK
6
CONTINUOUS
10
101.471
20
-99.7124
11
101.464
21
-99.7241
0
LINE
8
BLACK
6
CONTINUOUS
10
101.464
20
-99.7241
11
101.46
21
-99.7365
0
LINE
8
BLACK
6
CONTINUOUS
10
101.46
20
-99.7365
11
101.454
21
-99.7434
0
LINE
8
BLACK
6
CONTINUOUS
10
101.454
20
-99.7434
11
101.45
21
-99.7513
0
LINE
8
BLACK
6
CONTINUOUS
10
101.45
20
-99.7513
11
101.44
21
-99.7601
0
LINE
8
BLACK
6
CONTINUOUS
10
101.44
20
-99.7601
11
101.432
21
-99.7703
0
LINE
8
BLACK
6
CONTINUOUS
10
101.432
20
-99.7703
11
101.424
21
-99.7748
0
LINE
8
BLACK
6
CONTINUOUS
10
101.424
20
-99.7748
11
101.417
21
-99.7808
0
LINE
8
BLACK
6
CONTINUOUS
10
101.417
20
-99.7808
11
101.405
21
-99.7857
0
LINE
8
BLACK
6
CONTINUOUS
10
101.405
20
-99.7857
11
101.393
21
-99.7923
0
LINE
8
BLACK
6
CONTINUOUS
10
101.393
20
-99.7923
11
101.385
21
-99.7939
0
LINE
8
BLACK
6
CONTINUOUS
10
101.385
20
-99.7939
11
101.376
21
-99.7973
0
LINE
8
BLACK
6
CONTINUOUS
10
101.376
20
-99.7973
11
101.363
21
-99.7977
0
LINE
8
BLACK
6
CONTINUOUS
10
101.363
20
-99.7977
11
101.35
21
-99.8
0
LINE
8
BLACK
6
CONTINUOUS
10
101.35
20
-99.8
11
101.016
21
-99.8
0
LINE
8
BLACK
6
CONTINUOUS
10
101.016
20
-99.8
11
101.01
21
-99.7989
0
LINE
8
BLACK
6
CONTINUOUS
10
101.01
20
-99.7989
11
101.004
21
-99.7994
0
LINE
8
BLACK
6
CONTINUOUS
10
101.004
20
-99.7994
11
100.857
21
-99.785
0
LINE
8
BLACK
6
CONTINUOUS
10
100.857
20
-99.785
11
100.845
21
-99.7817
0
LINE
8
BLACK
6
CONTINUOUS
10
100.845
20
-99.7817
11
100.833
21
-99.7802
0
LINE
8
BLACK
6
CONTINUOUS
10
100.833
20
-99.7802
11
100.707
21
-99.7423
0
LINE
8
BLACK
6
CONTINUOUS
10
100.707
20
-99.7423
11
100.696
21
-99.7367
0
LINE
8
BLACK
6
CONTINUOUS
10
100.696
20
-99.7367
11
100.685
21
-99.7329
0
LINE
8
BLACK
6
CONTINUOUS
10
100.685
20
-99.7329
11
100.569
21
-99.6714
0
LINE
8
BLACK
6
CONTINUOUS
10
100.569
20
-99.6714
11
100.559
21
-99.6637
0
LINE
8
BLACK
6
CONTINUOUS
10
100.559
20
-99.6637
11
100.548
21
-99.6577
0
LINE
8
BLACK
6
CONTINUOUS
10
100.548
20
-99.6577
11
100.447
21
-99.5748
0
LINE
8
BLACK
6
CONTINUOUS
10
100.447
20
-99.5748
11
100.438
21
-99.5654
0
LINE
8
BLACK
6
CONTINUOUS
10
100.438
20
-99.5654
11
100.429
21
-99.5574
0
LINE
8
BLACK
6
CONTINUOUS
10
100.429
20
-99.5574
11
100.346
21
-99.4564
0
LINE
8
BLACK
6
CONTINUOUS
10
100.346
20
-99.4564
11
100.339
21
-99.4456
0
LINE
8
BLACK
6
CONTINUOUS
10
100.339
20
-99.4456
11
100.332
21
-99.4359
0
LINE
8
BLACK
6
CONTINUOUS
10
100.332
20
-99.4359
11
100.269
21
-99.3206
0
LINE
8
BLACK
6
CONTINUOUS
10
100.269
20
-99.3206
11
100.265
21
-99.3088
0
LINE
8
BLACK
6
CONTINUOUS
10
100.265
20
-99.3088
11
100.26
21
-99.2977
0
LINE
8
BLACK
6
CONTINUOUS
10
100.26
20
-99.2977
11
100.221
21
-99.1726
0
LINE
8
BLACK
6
CONTINUOUS
10
100.221
20
-99.1726
11
100.219
21
-99.1602
0
LINE
8
BLACK
6
CONTINUOUS
10
100.219
20
-99.1602
11
100.216
21
-99.1483
0
LINE
8
BLACK
6
CONTINUOUS
10
100.216
20
-99.1483
11
100.201
21
-99.0029
0
LINE
8
BLACK
6
CONTINUOUS
10
100.201
20
-99.0029
11
100.201
21
-98.9962
0
LINE
8
BLACK
6
CONTINUOUS
10
100.201
20
-98.9962
11
100.2
21
-98.9896
0
LINE
8
BLACK
6
CONTINUOUS
10
100.2
20
-98.9896
11
100.2
21
-98.6503
0
LINE
8
BLACK
6
CONTINUOUS
10
100.2
20
-98.6503
11
100.202
21
-98.6373
0
LINE
8
BLACK
6
CONTINUOUS
10
100.202
20
-98.6373
11
100.203
21
-98.6242
0
LINE
8
BLACK
6
CONTINUOUS
10
100.203
20
-98.6242
11
100.206
21
-98.6158
0
LINE
8
BLACK
6
CONTINUOUS
10
100.206
20
-98.6158
11
100.208
21
-98.6069
0
LINE
8
BLACK
6
CONTINUOUS
10
100.208
20
-98.6069
11
100.214
21
-98.5955
0
LINE
8
BLACK
6
CONTINUOUS
10
100.214
20
-98.5955
11
100.219
21
-98.5832
0
LINE
8
BLACK
6
CONTINUOUS
10
100.219
20
-98.5832
11
100.225
21
-98.5765
0
LINE
8
BLACK
6
CONTINUOUS
10
100.225
20
-98.5765
11
100.23
21
-98.5687
0
LINE
8
BLACK
6
CONTINUOUS
10
100.23
20
-98.5687
11
100.24
21
-98.5602
0
LINE
8
BLACK
6
CONTINUOUS
10
100.24
20
-98.5602
11
100.249
21
-98.5504
0
LINE
8
BLACK
6
CONTINUOUS
10
100.249
20
-98.5504
11
100.257
21
-98.5461
0
LINE
8
BLACK
6
CONTINUOUS
10
100.257
20
-98.5461
11
100.263
21
-98.5403
0
LINE
8
BLACK
6
CONTINUOUS
10
100.263
20
-98.5403
11
100.276
21
-98.5358
0
LINE
8
BLACK
6
CONTINUOUS
10
100.276
20
-98.5358
11
100.287
21
-98.5296
0
LINE
8
BLACK
6
CONTINUOUS
10
100.287
20
-98.5296
11
100.296
21
-98.5283
0
LINE
8
BLACK
6
CONTINUOUS
10
100.296
20
-98.5283
11
100.305
21
-98.5252
0
LINE
8
BLACK
6
CONTINUOUS
10
100.305
20
-98.5252
11
100.318
21
-98.5252
0
LINE
8
BLACK
6
CONTINUOUS
10
100.318
20
-98.5252
11
100.331
21
-98.5234
0
LINE
8
BLACK
6
CONTINUOUS
10
100.331
20
-98.5234
11
100.34
21
-98.5252
0
LINE
8
BLACK
6
CONTINUOUS
10
100.34
20
-98.5252
11
100.349
21
-98.5252
0
LINE
8
BLACK
6
CONTINUOUS
10
100.349
20
-98.5252
11
100.361
21
-98.5297
0
LINE
8
BLACK
6
CONTINUOUS
10
100.361
20
-98.5297
11
100.374
21
-98.5325
0
LINE
8
BLACK
6
CONTINUOUS
10
100.374
20
-98.5325
11
100.382
21
-98.5372
0
LINE
8
BLACK
6
CONTINUOUS
10
100.382
20
-98.5372
11
100.39
21
-98.5403
0
LINE
8
BLACK
6
CONTINUOUS
10
100.39
20
-98.5403
11
100.401
21
-98.5488
0
LINE
8
BLACK
6
CONTINUOUS
10
100.401
20
-98.5488
11
100.412
21
-98.5557
0
LINE
8
BLACK
6
CONTINUOUS
10
100.412
20
-98.5557
11
100.417
21
-98.5629
0
LINE
8
BLACK
6
CONTINUOUS
10
100.417
20
-98.5629
11
100.424
21
-98.5687
0
LINE
8
BLACK
6
CONTINUOUS
10
100.424
20
-98.5687
11
100.431
21
-98.5801
0
LINE
8
BLACK
6
CONTINUOUS
10
100.431
20
-98.5801
11
100.439
21
-98.5904
0
LINE
8
BLACK
6
CONTINUOUS
10
100.439
20
-98.5904
11
100.476
21
-98.6591
0
LINE
8
BLACK
6
CONTINUOUS
10
100.476
20
-98.6591
11
100.78
21
-98.8604
0
LINE
8
BLACK
6
CONTINUOUS
10
100.78
20
-98.8604
11
101.062
21
-98.5792
0
LINE
8
BLACK
6
CONTINUOUS
10
101.062
20
-98.5792
11
100.802
21
-98.2693
0
LINE
8
BLACK
6
CONTINUOUS
10
100.802
20
-98.2693
11
100.5
21
-97.4408
0
LINE
8
BLACK
6
CONTINUOUS
10
100.5
20
-97.4408
11
100.5
21
-96.5592
0
LINE
8
BLACK
6
CONTINUOUS
10
100.5
20
-96.5592
11
100.802
21
-95.7307
0
LINE
8
BLACK
6
CONTINUOUS
10
100.802
20
-95.7307
11
101.062
21
-95.4208
0
LINE
8
BLACK
6
CONTINUOUS
10
101.062
20
-95.4208
11
100.78
21
-95.1396
0
LINE
8
BLACK
6
CONTINUOUS
10
100.78
20
-95.1396
11
100.476
21
-95.3408
0
LINE
8
BLACK
6
CONTINUOUS
10
100.476
20
-95.3408
11
100.439
21
-95.4097
0
LINE
8
BLACK
6
CONTINUOUS
10
100.439
20
-95.4097
11
100.431
21
-95.4201
0
LINE
8
BLACK
6
CONTINUOUS
10
100.431
20
-95.4201
11
100.424
21
-95.4316
0
LINE
8
BLACK
6
CONTINUOUS
10
100.424
20
-95.4316
11
100.417
21
-95.4373
0
LINE
8
BLACK
6
CONTINUOUS
10
100.417
20
-95.4373
11
100.412
21
-95.4444
0
LINE
8
BLACK
6
CONTINUOUS
10
100.412
20
-95.4444
11
100.401
21
-95.4514
0
LINE
8
BLACK
6
CONTINUOUS
10
100.401
20
-95.4514
11
100.39
21
-95.4599
0
LINE
8
BLACK
6
CONTINUOUS
10
100.39
20
-95.4599
11
100.382
21
-95.463
0
LINE
8
BLACK
6
CONTINUOUS
10
100.382
20
-95.463
11
100.374
21
-95.4677
0
LINE
8
BLACK
6
CONTINUOUS
10
100.374
20
-95.4677
11
100.361
21
-95.4705
0
LINE
8
BLACK
6
CONTINUOUS
10
100.361
20
-95.4705
11
100.349
21
-95.475
0
LINE
8
BLACK
6
CONTINUOUS
10
100.349
20
-95.475
11
100.34
21
-95.475
0
LINE
8
BLACK
6
CONTINUOUS
10
100.34
20
-95.475
11
100.331
21
-95.4769
0
LINE
8
BLACK
6
CONTINUOUS
10
100.331
20
-95.4769
11
100.318
21
-95.475
0
LINE
8
BLACK
6
CONTINUOUS
10
100.318
20
-95.475
11
100.305
21
-95.475
0
LINE
8
BLACK
6
CONTINUOUS
10
100.305
20
-95.475
11
100.297
21
-95.4719
0
LINE
8
BLACK
6
CONTINUOUS
10
100.297
20
-95.4719
11
100.288
21
-95.4707
0
LINE
8
BLACK
6
CONTINUOUS
10
100.288
20
-95.4707
11
100.276
21
-95.4645
0
LINE
8
BLACK
6
CONTINUOUS
10
100.276
20
-95.4645
11
100.263
21
-95.4599
0
LINE
8
BLACK
6
CONTINUOUS
10
100.263
20
-95.4599
11
100.257
21
-95.4542
0
LINE
8
BLACK
6
CONTINUOUS
10
100.257
20
-95.4542
11
100.249
21
-95.4499
0
LINE
8
BLACK
6
CONTINUOUS
10
100.249
20
-95.4499
11
100.24
21
-95.4401
0
LINE
8
BLACK
6
CONTINUOUS
10
100.24
20
-95.4401
11
100.23
21
-95.4316
0
LINE
8
BLACK
6
CONTINUOUS
10
100.23
20
-95.4316
11
100.225
21
-95.4238
0
LINE
8
BLACK
6
CONTINUOUS
10
100.225
20
-95.4238
11
100.219
21
-95.4171
0
LINE
8
BLACK
6
CONTINUOUS
10
100.219
20
-95.4171
11
100.214
21
-95.4048
0
LINE
8
BLACK
6
CONTINUOUS
10
100.214
20
-95.4048
11
100.208
21
-95.3934
0
LINE
8
BLACK
6
CONTINUOUS
10
100.208
20
-95.3934
11
100.206
21
-95.3845
0
LINE
8
BLACK
6
CONTINUOUS
10
100.206
20
-95.3845
11
100.203
21
-95.3762
0
LINE
8
BLACK
6
CONTINUOUS
10
100.203
20
-95.3762
11
100.202
21
-95.363
0
LINE
8
BLACK
6
CONTINUOUS
10
100.202
20
-95.363
11
100.2
21
-95.3499
0
LINE
8
BLACK
6
CONTINUOUS
10
100.2
20
-95.3499
11
100.2
21
-61.6503
0
LINE
8
BLACK
6
CONTINUOUS
10
100.2
20
-61.6503
11
100.202
21
-61.6373
0
LINE
8
BLACK
6
CONTINUOUS
10
104.938
20
-95.4208
11
105.198
21
-95.7307
0
LINE
8
BLACK
6
CONTINUOUS
10
105.198
20
-95.7307
11
105.5
21
-96.5592
0
LINE
8
BLACK
6
CONTINUOUS
10
105.5
20
-96.5592
11
105.5
21
-97.4408
0
LINE
8
BLACK
6
CONTINUOUS
10
105.5
20
-97.4408
11
105.198
21
-98.2693
0
LINE
8
BLACK
6
CONTINUOUS
10
105.198
20
-98.2693
11
104.938
21
-98.5792
0
LINE
8
BLACK
6
CONTINUOUS
10
104.938
20
-98.5792
11
105.22
21
-98.8604
0
LINE
8
BLACK
6
CONTINUOUS
10
105.22
20
-98.8604
11
105.524
21
-98.6592
0
LINE
8
BLACK
6
CONTINUOUS
10
105.524
20
-98.6592
11
105.794
21
-98.1537
0
LINE
8
BLACK
6
CONTINUOUS
10
105.794
20
-98.1537
11
105.965
21
-97.5865
0
LINE
8
BLACK
6
CONTINUOUS
10
105.965
20
-97.5865
11
106.023
21
-96.9968
0
LINE
8
BLACK
6
CONTINUOUS
10
106.023
20
-96.9968
11
105.964
21
-96.4072
0
LINE
8
BLACK
6
CONTINUOUS
10
105.964
20
-96.4072
11
105.791
21
-95.8403
0
LINE
8
BLACK
6
CONTINUOUS
10
105.791
20
-95.8403
11
105.524
21
-95.3409
0
LINE
8
BLACK
6
CONTINUOUS
10
105.524
20
-95.3409
11
105.22
21
-95.1396
0
LINE
8
BLACK
6
CONTINUOUS
10
105.22
20
-95.1396
11
104.938
21
-95.4208
0
LINE
8
BLACK
6
CONTINUOUS
10
164.476
20
-95.3408
11
164.206
21
-95.8463
0
LINE
8
BLACK
6
CONTINUOUS
10
164.206
20
-95.8463
11
164.035
21
-96.4135
0
LINE
8
BLACK
6
CONTINUOUS
10
164.035
20
-96.4135
11
163.977
21
-97.0032
0
LINE
8
BLACK
6
CONTINUOUS
10
163.977
20
-97.0032
11
164.036
21
-97.5928
0
LINE
8
BLACK
6
CONTINUOUS
10
164.036
20
-97.5928
11
164.209
21
-98.1597
0
LINE
8
BLACK
6
CONTINUOUS
10
164.209
20
-98.1597
11
164.476
21
-98.6591
0
LINE
8
BLACK
6
CONTINUOUS
10
164.476
20
-98.6591
11
164.78
21
-98.8604
0
LINE
8
BLACK
6
CONTINUOUS
10
164.78
20
-98.8604
11
165.062
21
-98.5792
0
LINE
8
BLACK
6
CONTINUOUS
10
165.062
20
-98.5792
11
164.802
21
-98.2693
0
LINE
8
BLACK
6
CONTINUOUS
10
164.802
20
-98.2693
11
164.5
21
-97.4408
0
LINE
8
BLACK
6
CONTINUOUS
10
164.5
20
-97.4408
11
164.5
21
-96.5592
0
LINE
8
BLACK
6
CONTINUOUS
10
164.5
20
-96.5592
11
164.802
21
-95.7307
0
LINE
8
BLACK
6
CONTINUOUS
10
164.802
20
-95.7307
11
165.062
21
-95.4208
0
LINE
8
BLACK
6
CONTINUOUS
10
165.062
20
-95.4208
11
164.78
21
-95.1396
0
LINE
8
BLACK
6
CONTINUOUS
10
164.78
20
-95.1396
11
164.476
21
-95.3408
0
LINE
8
BLACK
6
CONTINUOUS
10
102.407
20
-94.0361
11
101.84
21
-94.2088
0
LINE
8
BLACK
6
CONTINUOUS
10
101.84
20
-94.2088
11
101.341
21
-94.4757
0
LINE
8
BLACK
6
CONTINUOUS
10
101.341
20
-94.4757
11
101.14
21
-94.7804
0
LINE
8
BLACK
6
CONTINUOUS
10
101.14
20
-94.7804
11
101.398
21
-95.0384
0
LINE
8
BLACK
6
CONTINUOUS
10
101.398
20
-95.0384
11
102.132
21
-94.6145
0
LINE
8
BLACK
6
CONTINUOUS
10
102.132
20
-94.6145
11
103
21
-94.4614
0
LINE
8
BLACK
6
CONTINUOUS
10
103
20
-94.4614
11
103.868
21
-94.6145
0
LINE
8
BLACK
6
CONTINUOUS
10
103.868
20
-94.6145
11
104.602
21
-95.0384
0
LINE
8
BLACK
6
CONTINUOUS
10
104.602
20
-95.0384
11
104.86
21
-94.7804
0
LINE
8
BLACK
6
CONTINUOUS
10
104.86
20
-94.7804
11
104.659
21
-94.4758
0
LINE
8
BLACK
6
CONTINUOUS
10
104.659
20
-94.4758
11
104.154
21
-94.2063
0
LINE
8
BLACK
6
CONTINUOUS
10
104.154
20
-94.2063
11
103.587
21
-94.0349
0
LINE
8
BLACK
6
CONTINUOUS
10
103.587
20
-94.0349
11
102.997
21
-93.9774
0
LINE
8
BLACK
6
CONTINUOUS
10
102.997
20
-93.9774
11
102.407
21
-94.0361
0
LINE
8
BLACK
6
CONTINUOUS
10
166.407
20
-94.0361
11
165.84
21
-94.2088
0
LINE
8
BLACK
6
CONTINUOUS
10
165.84
20
-94.2088
11
165.341
21
-94.4757
0
LINE
8
BLACK
6
CONTINUOUS
10
165.341
20
-94.4757
11
165.14
21
-94.7804
0
LINE
8
BLACK
6
CONTINUOUS
10
165.14
20
-94.7804
11
165.398
21
-95.0384
0
LINE
8
BLACK
6
CONTINUOUS
10
165.398
20
-95.0384
11
166.132
21
-94.6145
0
LINE
8
BLACK
6
CONTINUOUS
10
166.132
20
-94.6145
11
167
21
-94.4614
0
LINE
8
BLACK
6
CONTINUOUS
10
167
20
-94.4614
11
167.868
21
-94.6145
0
LINE
8
BLACK
6
CONTINUOUS
10
167.868
20
-94.6145
11
168.602
21
-95.0384
0
LINE
8
BLACK
6
CONTINUOUS
10
168.602
20
-95.0384
11
168.86
21
-94.7804
0
LINE
8
BLACK
6
CONTINUOUS
10
168.86
20
-94.7804
11
168.659
21
-94.4758
0
LINE
8
BLACK
6
CONTINUOUS
10
168.659
20
-94.4758
11
168.154
21
-94.2063
0
LINE
8
BLACK
6
CONTINUOUS
10
168.154
20
-94.2063
11
167.587
21
-94.0349
0
LINE
8
BLACK
6
CONTINUOUS
10
167.587
20
-94.0349
11
166.997
21
-93.9774
0
LINE
8
BLACK
6
CONTINUOUS
10
166.997
20
-93.9774
11
166.407
21
-94.0361
0
LINE
8
BLACK
6
CONTINUOUS
10
106.192
20
-91.74
11
105.979
21
-91.7823
0
LINE
8
BLACK
6
CONTINUOUS
10
105.979
20
-91.7823
11
105.779
21
-91.8652
0
LINE
8
BLACK
6
CONTINUOUS
10
105.779
20
-91.8652
11
105.599
21
-91.9856
0
LINE
8
BLACK
6
CONTINUOUS
10
105.599
20
-91.9856
11
105.446
21
-92.1388
0
LINE
8
BLACK
6
CONTINUOUS
10
105.446
20
-92.1388
11
105.325
21
-92.319
0
LINE
8
BLACK
6
CONTINUOUS
10
105.325
20
-92.319
11
105.242
21
-92.5191
0
LINE
8
BLACK
6
CONTINUOUS
10
105.242
20
-92.5191
11
105.2
21
-92.7317
0
LINE
8
BLACK
6
CONTINUOUS
10
105.2
20
-92.7317
11
105.2
21
-92.9483
0
LINE
8
BLACK
6
CONTINUOUS
10
105.2
20
-92.9483
11
105.242
21
-93.1609
0
LINE
8
BLACK
6
CONTINUOUS
10
105.242
20
-93.1609
11
105.325
21
-93.361
0
LINE
8
BLACK
6
CONTINUOUS
10
105.325
20
-93.361
11
105.446
21
-93.5412
0
LINE
8
BLACK
6
CONTINUOUS
10
105.446
20
-93.5412
11
105.599
21
-93.6944
0
LINE
8
BLACK
6
CONTINUOUS
10
105.599
20
-93.6944
11
105.779
21
-93.8148
0
LINE
8
BLACK
6
CONTINUOUS
10
105.779
20
-93.8148
11
105.979
21
-93.8977
0
LINE
8
BLACK
6
CONTINUOUS
10
105.979
20
-93.8977
11
106.192
21
-93.94
0
LINE
8
BLACK
6
CONTINUOUS
10
106.192
20
-93.94
11
106.408
21
-93.94
0
LINE
8
BLACK
6
CONTINUOUS
10
106.408
20
-93.94
11
106.621
21
-93.8977
0
LINE
8
BLACK
6
CONTINUOUS
10
106.621
20
-93.8977
11
106.821
21
-93.8148
0
LINE
8
BLACK
6
CONTINUOUS
10
106.821
20
-93.8148
11
107.001
21
-93.6944
0
LINE
8
BLACK
6
CONTINUOUS
10
107.001
20
-93.6944
11
107.154
21
-93.5412
0
LINE
8
BLACK
6
CONTINUOUS
10
107.154
20
-93.5412
11
107.275
21
-93.361
0
LINE
8
BLACK
6
CONTINUOUS
10
107.275
20
-93.361
11
107.358
21
-93.1609
0
LINE
8
BLACK
6
CONTINUOUS
10
107.358
20
-93.1609
11
107.4
21
-92.9483
0
LINE
8
BLACK
6
CONTINUOUS
10
107.4
20
-92.9483
11
107.4
21
-92.7317
0
LINE
8
BLACK
6
CONTINUOUS
10
107.4
20
-92.7317
11
107.358
21
-92.5217
0
LINE
8
BLACK
6
CONTINUOUS
10
107.358
20
-92.5217
11
107.358
21
-92.5191
0
LINE
8
BLACK
6
CONTINUOUS
10
107.358
20
-92.5191
11
107.275
21
-92.319
0
LINE
8
BLACK
6
CONTINUOUS
10
107.275
20
-92.319
11
107.154
21
-92.1388
0
LINE
8
BLACK
6
CONTINUOUS
10
107.154
20
-92.1388
11
107.001
21
-91.9856
0
LINE
8
BLACK
6
CONTINUOUS
10
107.001
20
-91.9856
11
106.856
21
-91.8887
0
LINE
8
BLACK
6
CONTINUOUS
10
106.856
20
-91.8887
11
106.856
21
-91.8887
0
LINE
8
BLACK
6
CONTINUOUS
10
106.856
20
-91.8887
11
106.821
21
-91.8652
0
LINE
8
BLACK
6
CONTINUOUS
10
106.821
20
-91.8652
11
106.621
21
-91.7823
0
LINE
8
BLACK
6
CONTINUOUS
10
106.621
20
-91.7823
11
106.408
21
-91.74
0
LINE
8
BLACK
6
CONTINUOUS
10
106.408
20
-91.74
11
106.192
21
-91.74
0
LINE
8
BLACK
6
CONTINUOUS
10
164.656
20
-92.394
11
164.595
21
-92.51
0
LINE
8
BLACK
6
CONTINUOUS
10
164.595
20
-92.51
11
164.622
21
-92.5981
0
LINE
8
BLACK
6
CONTINUOUS
10
164.622
20
-92.5981
11
164.738
21
-92.841
0
LINE
8
BLACK
6
CONTINUOUS
10
164.738
20
-92.841
11
164.897
21
-93.0543
0
LINE
8
BLACK
6
CONTINUOUS
10
164.897
20
-93.0543
11
165.094
21
-93.2325
0
LINE
8
BLACK
6
CONTINUOUS
10
165.094
20
-93.2325
11
165.323
21
-93.3686
0
LINE
8
BLACK
6
CONTINUOUS
10
165.323
20
-93.3686
11
165.533
21
-93.4432
0
LINE
8
BLACK
6
CONTINUOUS
10
165.533
20
-93.4432
11
165.646
21
-93.384
0
LINE
8
BLACK
6
CONTINUOUS
10
165.646
20
-93.384
11
165.646
21
-92.9583
0
LINE
8
BLACK
6
CONTINUOUS
10
165.646
20
-92.9583
11
165.605
21
-92.9511
0
LINE
8
BLACK
6
CONTINUOUS
10
165.605
20
-92.9511
11
165.345
21
-92.8012
0
LINE
8
BLACK
6
CONTINUOUS
10
165.345
20
-92.8012
11
165.153
21
-92.5716
0
LINE
8
BLACK
6
CONTINUOUS
10
165.153
20
-92.5716
11
165.088
21
-92.394
0
LINE
8
BLACK
6
CONTINUOUS
10
165.088
20
-92.394
11
164.656
21
-92.394
0
LINE
8
BLACK
6
CONTINUOUS
10
166.712
20
-92.394
11
166.647
21
-92.5716
0
LINE
8
BLACK
6
CONTINUOUS
10
166.647
20
-92.5716
11
166.455
21
-92.8012
0
LINE
8
BLACK
6
CONTINUOUS
10
166.455
20
-92.8012
11
166.195
21
-92.9511
0
LINE
8
BLACK
6
CONTINUOUS
10
166.195
20
-92.9511
11
166.154
21
-92.9583
0
LINE
8
BLACK
6
CONTINUOUS
10
166.154
20
-92.9583
11
166.154
21
-93.384
0
LINE
8
BLACK
6
CONTINUOUS
10
166.154
20
-93.384
11
166.267
21
-93.4432
0
LINE
8
BLACK
6
CONTINUOUS
10
166.267
20
-93.4432
11
166.477
21
-93.3686
0
LINE
8
BLACK
6
CONTINUOUS
10
166.477
20
-93.3686
11
166.706
21
-93.2325
0
LINE
8
BLACK
6
CONTINUOUS
10
166.706
20
-93.2325
11
166.903
21
-93.0543
0
LINE
8
BLACK
6
CONTINUOUS
10
166.903
20
-93.0543
11
167.062
21
-92.841
0
LINE
8
BLACK
6
CONTINUOUS
10
167.062
20
-92.841
11
167.178
21
-92.5981
0
LINE
8
BLACK
6
CONTINUOUS
10
167.178
20
-92.5981
11
167.205
21
-92.51
0
LINE
8
BLACK
6
CONTINUOUS
10
167.205
20
-92.51
11
167.144
21
-92.394
0
LINE
8
BLACK
6
CONTINUOUS
10
167.144
20
-92.394
11
166.712
21
-92.394
0
LINE
8
BLACK
6
CONTINUOUS
10
165.056
20
-88.5484
11
165.011
21
-88.5529
0
LINE
8
BLACK
6
CONTINUOUS
10
165.011
20
-88.5529
11
164.973
21
-88.5643
0
LINE
8
BLACK
6
CONTINUOUS
10
164.973
20
-88.5643
11
164.938
21
-88.5829
0
LINE
8
BLACK
6
CONTINUOUS
10
164.938
20
-88.5829
11
164.908
21
-88.6079
0
LINE
8
BLACK
6
CONTINUOUS
10
164.908
20
-88.6079
11
164.883
21
-88.6383
0
LINE
8
BLACK
6
CONTINUOUS
10
164.883
20
-88.6383
11
164.864
21
-88.6731
0
LINE
8
BLACK
6
CONTINUOUS
10
164.864
20
-88.6731
11
164.853
21
-88.7108
0
LINE
8
BLACK
6
CONTINUOUS
10
164.853
20
-88.7108
11
164.848
21
-88.7562
0
LINE
8
BLACK
6
CONTINUOUS
10
164.848
20
-88.7562
11
164.848
21
-90.4438
0
LINE
8
BLACK
6
CONTINUOUS
10
164.848
20
-90.4438
11
164.853
21
-90.4892
0
LINE
8
BLACK
6
CONTINUOUS
10
164.853
20
-90.4892
11
164.864
21
-90.5269
0
LINE
8
BLACK
6
CONTINUOUS
10
164.864
20
-90.5269
11
164.883
21
-90.5617
0
LINE
8
BLACK
6
CONTINUOUS
10
164.883
20
-90.5617
11
164.908
21
-90.5921
0
LINE
8
BLACK
6
CONTINUOUS
10
164.908
20
-90.5921
11
164.938
21
-90.6171
0
LINE
8
BLACK
6
CONTINUOUS
10
164.938
20
-90.6171
11
164.973
21
-90.6357
0
LINE
8
BLACK
6
CONTINUOUS
10
164.973
20
-90.6357
11
165.011
21
-90.6471
0
LINE
8
BLACK
6
CONTINUOUS
10
165.011
20
-90.6471
11
165.056
21
-90.6516
0
LINE
8
BLACK
6
CONTINUOUS
10
165.056
20
-90.6516
11
165.317
21
-90.6516
0
LINE
8
BLACK
6
CONTINUOUS
10
165.317
20
-90.6516
11
165.318
21
-90.6517
0
LINE
8
BLACK
6
CONTINUOUS
10
165.318
20
-90.6517
11
165.318
21
-90.6516
0
LINE
8
BLACK
6
CONTINUOUS
10
165.318
20
-90.6516
11
165.34
21
-90.6555
0
LINE
8
BLACK
6
CONTINUOUS
10
165.34
20
-90.6555
11
165.361
21
-90.6592
0
LINE
8
BLACK
6
CONTINUOUS
10
165.361
20
-90.6592
11
165.361
21
-90.6595
0
LINE
8
BLACK
6
CONTINUOUS
10
165.361
20
-90.6595
11
165.362
21
-90.6596
0
LINE
8
BLACK
6
CONTINUOUS
10
165.362
20
-90.6596
11
165.38
21
-90.6705
0
LINE
8
BLACK
6
CONTINUOUS
10
165.38
20
-90.6705
11
165.399
21
-90.6813
0
LINE
8
BLACK
6
CONTINUOUS
10
165.399
20
-90.6813
11
165.399
21
-90.6817
0
LINE
8
BLACK
6
CONTINUOUS
10
165.399
20
-90.6817
11
165.4
21
-90.682
0
LINE
8
BLACK
6
CONTINUOUS
10
165.4
20
-90.682
11
165.414
21
-90.6986
0
LINE
8
BLACK
6
CONTINUOUS
10
165.414
20
-90.6986
11
165.427
21
-90.7151
0
LINE
8
BLACK
6
CONTINUOUS
10
165.427
20
-90.7151
11
165.428
21
-90.7156
0
LINE
8
BLACK
6
CONTINUOUS
10
165.428
20
-90.7156
11
165.428
21
-90.716
0
LINE
8
BLACK
6
CONTINUOUS
10
165.428
20
-90.716
11
165.435
21
-90.7363
0
LINE
8
BLACK
6
CONTINUOUS
10
165.435
20
-90.7363
11
165.442
21
-90.7565
0
LINE
8
BLACK
6
CONTINUOUS
10
165.442
20
-90.7565
11
165.442
21
-90.7571
0
LINE
8
BLACK
6
CONTINUOUS
10
165.442
20
-90.7571
11
165.443
21
-90.7576
0
LINE
8
BLACK
6
CONTINUOUS
10
165.443
20
-90.7576
11
165.442
21
-90.7791
0
LINE
8
BLACK
6
CONTINUOUS
10
165.442
20
-90.7791
11
165.442
21
-90.8006
0
LINE
8
BLACK
6
CONTINUOUS
10
165.442
20
-90.8006
11
165.442
21
-90.8011
0
LINE
8
BLACK
6
CONTINUOUS
10
165.442
20
-90.8011
11
165.442
21
-90.8017
0
LINE
8
BLACK
6
CONTINUOUS
10
165.442
20
-90.8017
11
165.435
21
-90.8219
0
LINE
8
BLACK
6
CONTINUOUS
10
165.435
20
-90.8219
11
165.427
21
-90.8421
0
LINE
8
BLACK
6
CONTINUOUS
10
165.427
20
-90.8421
11
165.427
21
-90.8425
0
LINE
8
BLACK
6
CONTINUOUS
10
165.427
20
-90.8425
11
165.427
21
-90.843
0
LINE
8
BLACK
6
CONTINUOUS
10
165.427
20
-90.843
11
165.413
21
-90.8594
0
LINE
8
BLACK
6
CONTINUOUS
10
165.413
20
-90.8594
11
165.399
21
-90.8759
0
LINE
8
BLACK
6
CONTINUOUS
10
165.399
20
-90.8759
11
165.399
21
-90.8761
0
LINE
8
BLACK
6
CONTINUOUS
10
165.399
20
-90.8761
11
165.398
21
-90.8765
0
LINE
8
BLACK
6
CONTINUOUS
10
165.398
20
-90.8765
11
165.38
21
-90.8871
0
LINE
8
BLACK
6
CONTINUOUS
10
165.38
20
-90.8871
11
165.361
21
-90.8979
0
LINE
8
BLACK
6
CONTINUOUS
10
165.361
20
-90.8979
11
165.36
21
-90.898
0
LINE
8
BLACK
6
CONTINUOUS
10
165.36
20
-90.898
11
165.36
21
-90.8983
0
LINE
8
BLACK
6
CONTINUOUS
10
165.36
20
-90.8983
11
165.323
21
-90.9114
0
LINE
8
BLACK
6
CONTINUOUS
10
165.323
20
-90.9114
11
165.094
21
-91.0475
0
LINE
8
BLACK
6
CONTINUOUS
10
165.094
20
-91.0475
11
164.897
21
-91.2257
0
LINE
8
BLACK
6
CONTINUOUS
10
164.897
20
-91.2257
11
164.738
21
-91.439
0
LINE
8
BLACK
6
CONTINUOUS
10
164.738
20
-91.439
11
164.622
21
-91.6819
0
LINE
8
BLACK
6
CONTINUOUS
10
164.622
20
-91.6819
11
164.595
21
-91.77
0
LINE
8
BLACK
6
CONTINUOUS
10
164.595
20
-91.77
11
164.656
21
-91.886
0
LINE
8
BLACK
6
CONTINUOUS
10
164.656
20
-91.886
11
165.088
21
-91.886
0
LINE
8
BLACK
6
CONTINUOUS
10
165.088
20
-91.886
11
165.153
21
-91.7084
0
LINE
8
BLACK
6
CONTINUOUS
10
165.153
20
-91.7084
11
165.345
21
-91.4788
0
LINE
8
BLACK
6
CONTINUOUS
10
165.345
20
-91.4788
11
165.605
21
-91.3289
0
LINE
8
BLACK
6
CONTINUOUS
10
165.605
20
-91.3289
11
165.826
21
-91.29
0
LINE
8
BLACK
6
CONTINUOUS
10
165.826
20
-91.29
11
165.974
21
-91.29
0
LINE
8
BLACK
6
CONTINUOUS
10
165.974
20
-91.29
11
166.195
21
-91.3289
0
LINE
8
BLACK
6
CONTINUOUS
10
166.195
20
-91.3289
11
166.455
21
-91.4788
0
LINE
8
BLACK
6
CONTINUOUS
10
166.455
20
-91.4788
11
166.647
21
-91.7084
0
LINE
8
BLACK
6
CONTINUOUS
10
166.647
20
-91.7084
11
166.712
21
-91.886
0
LINE
8
BLACK
6
CONTINUOUS
10
166.712
20
-91.886
11
167.144
21
-91.886
0
LINE
8
BLACK
6
CONTINUOUS
10
167.144
20
-91.886
11
167.205
21
-91.77
0
LINE
8
BLACK
6
CONTINUOUS
10
167.205
20
-91.77
11
167.178
21
-91.6819
0
LINE
8
BLACK
6
CONTINUOUS
10
167.178
20
-91.6819
11
167.062
21
-91.439
0
LINE
8
BLACK
6
CONTINUOUS
10
167.062
20
-91.439
11
166.903
21
-91.2257
0
LINE
8
BLACK
6
CONTINUOUS
10
166.903
20
-91.2257
11
166.706
21
-91.0475
0
LINE
8
BLACK
6
CONTINUOUS
10
166.706
20
-91.0475
11
166.477
21
-90.9114
0
LINE
8
BLACK
6
CONTINUOUS
10
166.477
20
-90.9114
11
166.44
21
-90.8983
0
LINE
8
BLACK
6
CONTINUOUS
10
166.44
20
-90.8983
11
166.44
21
-90.898
0
LINE
8
BLACK
6
CONTINUOUS
10
166.44
20
-90.898
11
166.439
21
-90.8979
0
LINE
8
BLACK
6
CONTINUOUS
10
166.439
20
-90.8979
11
166.421
21
-90.8872
0
LINE
8
BLACK
6
CONTINUOUS
10
166.421
20
-90.8872
11
166.402
21
-90.8765
0
LINE
8
BLACK
6
CONTINUOUS
10
166.402
20
-90.8765
11
166.401
21
-90.8761
0
LINE
8
BLACK
6
CONTINUOUS
10
166.401
20
-90.8761
11
166.401
21
-90.8759
0
LINE
8
BLACK
6
CONTINUOUS
10
166.401
20
-90.8759
11
166.387
21
-90.8594
0
LINE
8
BLACK
6
CONTINUOUS
10
166.387
20
-90.8594
11
166.373
21
-90.843
0
LINE
8
BLACK
6
CONTINUOUS
10
166.373
20
-90.843
11
166.373
21
-90.8425
0
LINE
8
BLACK
6
CONTINUOUS
10
166.373
20
-90.8425
11
166.373
21
-90.8421
0
LINE
8
BLACK
6
CONTINUOUS
10
166.373
20
-90.8421
11
166.365
21
-90.8219
0
LINE
8
BLACK
6
CONTINUOUS
10
166.365
20
-90.8219
11
166.358
21
-90.8017
0
LINE
8
BLACK
6
CONTINUOUS
10
166.358
20
-90.8017
11
166.358
21
-90.8011
0
LINE
8
BLACK
6
CONTINUOUS
10
166.358
20
-90.8011
11
166.358
21
-90.8006
0
LINE
8
BLACK
6
CONTINUOUS
10
166.358
20
-90.8006
11
166.358
21
-90.7791
0
LINE
8
BLACK
6
CONTINUOUS
10
166.358
20
-90.7791
11
166.357
21
-90.7576
0
LINE
8
BLACK
6
CONTINUOUS
10
166.357
20
-90.7576
11
166.358
21
-90.7571
0
LINE
8
BLACK
6
CONTINUOUS
10
166.358
20
-90.7571
11
166.358
21
-90.7565
0
LINE
8
BLACK
6
CONTINUOUS
10
166.358
20
-90.7565
11
166.365
21
-90.7363
0
LINE
8
BLACK
6
CONTINUOUS
10
166.365
20
-90.7363
11
166.372
21
-90.716
0
LINE
8
BLACK
6
CONTINUOUS
10
166.372
20
-90.716
11
166.372
21
-90.7156
0
LINE
8
BLACK
6
CONTINUOUS
10
166.372
20
-90.7156
11
166.373
21
-90.7151
0
LINE
8
BLACK
6
CONTINUOUS
10
166.373
20
-90.7151
11
166.386
21
-90.6986
0
LINE
8
BLACK
6
CONTINUOUS
10
166.386
20
-90.6986
11
166.4
21
-90.682
0
LINE
8
BLACK
6
CONTINUOUS
10
166.4
20
-90.682
11
166.401
21
-90.6817
0
LINE
8
BLACK
6
CONTINUOUS
10
166.401
20
-90.6817
11
166.401
21
-90.6813
0
LINE
8
BLACK
6
CONTINUOUS
10
166.401
20
-90.6813
11
166.42
21
-90.6705
0
LINE
8
BLACK
6
CONTINUOUS
10
166.42
20
-90.6705
11
166.438
21
-90.6596
0
LINE
8
BLACK
6
CONTINUOUS
10
166.438
20
-90.6596
11
166.439
21
-90.6595
0
LINE
8
BLACK
6
CONTINUOUS
10
166.439
20
-90.6595
11
166.439
21
-90.6592
0
LINE
8
BLACK
6
CONTINUOUS
10
166.439
20
-90.6592
11
166.46
21
-90.6555
0
LINE
8
BLACK
6
CONTINUOUS
10
166.46
20
-90.6555
11
166.482
21
-90.6516
0
LINE
8
BLACK
6
CONTINUOUS
10
166.482
20
-90.6516
11
166.482
21
-90.6517
0
LINE
8
BLACK
6
CONTINUOUS
10
166.482
20
-90.6517
11
166.483
21
-90.6516
0
LINE
8
BLACK
6
CONTINUOUS
10
166.483
20
-90.6516
11
166.744
21
-90.6516
0
LINE
8
BLACK
6
CONTINUOUS
10
166.744
20
-90.6516
11
166.789
21
-90.6471
0
LINE
8
BLACK
6
CONTINUOUS
10
166.789
20
-90.6471
11
166.827
21
-90.6357
0
LINE
8
BLACK
6
CONTINUOUS
10
166.827
20
-90.6357
11
166.862
21
-90.6171
0
LINE
8
BLACK
6
CONTINUOUS
10
166.862
20
-90.6171
11
166.892
21
-90.5921
0
LINE
8
BLACK
6
CONTINUOUS
10
166.892
20
-90.5921
11
166.917
21
-90.5617
0
LINE
8
BLACK
6
CONTINUOUS
10
166.917
20
-90.5617
11
166.936
21
-90.5269
0
LINE
8
BLACK
6
CONTINUOUS
10
166.936
20
-90.5269
11
166.947
21
-90.4892
0
LINE
8
BLACK
6
CONTINUOUS
10
166.947
20
-90.4892
11
166.952
21
-90.4438
0
LINE
8
BLACK
6
CONTINUOUS
10
166.952
20
-90.4438
11
166.952
21
-88.7562
0
LINE
8
BLACK
6
CONTINUOUS
10
166.952
20
-88.7562
11
166.947
21
-88.7108
0
LINE
8
BLACK
6
CONTINUOUS
10
166.947
20
-88.7108
11
166.936
21
-88.6731
0
LINE
8
BLACK
6
CONTINUOUS
10
166.936
20
-88.6731
11
166.917
21
-88.6383
0
LINE
8
BLACK
6
CONTINUOUS
10
166.917
20
-88.6383
11
166.892
21
-88.6079
0
LINE
8
BLACK
6
CONTINUOUS
10
166.892
20
-88.6079
11
166.862
21
-88.5829
0
LINE
8
BLACK
6
CONTINUOUS
10
166.862
20
-88.5829
11
166.827
21
-88.5643
0
LINE
8
BLACK
6
CONTINUOUS
10
166.827
20
-88.5643
11
166.789
21
-88.5529
0
LINE
8
BLACK
6
CONTINUOUS
10
166.789
20
-88.5529
11
166.744
21
-88.5484
0
LINE
8
BLACK
6
CONTINUOUS
10
166.744
20
-88.5484
11
165.056
21
-88.5484
0
LINE
8
BLACK
6
CONTINUOUS
10
105.406
20
-89.1984
11
105.361
21
-89.2029
0
LINE
8
BLACK
6
CONTINUOUS
10
105.361
20
-89.2029
11
105.323
21
-89.2143
0
LINE
8
BLACK
6
CONTINUOUS
10
105.323
20
-89.2143
11
105.288
21
-89.2329
0
LINE
8
BLACK
6
CONTINUOUS
10
105.288
20
-89.2329
11
105.258
21
-89.2579
0
LINE
8
BLACK
6
CONTINUOUS
10
105.258
20
-89.2579
11
105.233
21
-89.2883
0
LINE
8
BLACK
6
CONTINUOUS
10
105.233
20
-89.2883
11
105.214
21
-89.3231
0
LINE
8
BLACK
6
CONTINUOUS
10
105.214
20
-89.3231
11
105.203
21
-89.3608
0
LINE
8
BLACK
6
CONTINUOUS
10
105.203
20
-89.3608
11
105.198
21
-89.4062
0
LINE
8
BLACK
6
CONTINUOUS
10
105.198
20
-89.4062
11
105.198
21
-91.1938
0
LINE
8
BLACK
6
CONTINUOUS
10
105.198
20
-91.1938
11
105.203
21
-91.2392
0
LINE
8
BLACK
6
CONTINUOUS
10
105.203
20
-91.2392
11
105.214
21
-91.2769
0
LINE
8
BLACK
6
CONTINUOUS
10
105.214
20
-91.2769
11
105.233
21
-91.3117
0
LINE
8
BLACK
6
CONTINUOUS
10
105.233
20
-91.3117
11
105.258
21
-91.3421
0
LINE
8
BLACK
6
CONTINUOUS
10
105.258
20
-91.3421
11
105.288
21
-91.3671
0
LINE
8
BLACK
6
CONTINUOUS
10
105.288
20
-91.3671
11
105.323
21
-91.3857
0
LINE
8
BLACK
6
CONTINUOUS
10
105.323
20
-91.3857
11
105.361
21
-91.3971
0
LINE
8
BLACK
6
CONTINUOUS
10
105.361
20
-91.3971
11
105.406
21
-91.4016
0
LINE
8
BLACK
6
CONTINUOUS
10
105.406
20
-91.4016
11
107.194
21
-91.4016
0
LINE
8
BLACK
6
CONTINUOUS
10
107.194
20
-91.4016
11
107.239
21
-91.3971
0
LINE
8
BLACK
6
CONTINUOUS
10
107.239
20
-91.3971
11
107.277
21
-91.3857
0
LINE
8
BLACK
6
CONTINUOUS
10
107.277
20
-91.3857
11
107.312
21
-91.3671
0
LINE
8
BLACK
6
CONTINUOUS
10
107.312
20
-91.3671
11
107.342
21
-91.3421
0
LINE
8
BLACK
6
CONTINUOUS
10
107.342
20
-91.3421
11
107.367
21
-91.3117
0
LINE
8
BLACK
6
CONTINUOUS
10
107.367
20
-91.3117
11
107.386
21
-91.2769
0
LINE
8
BLACK
6
CONTINUOUS
10
107.386
20
-91.2769
11
107.397
21
-91.2392
0
LINE
8
BLACK
6
CONTINUOUS
10
107.397
20
-91.2392
11
107.402
21
-91.1938
0
LINE
8
BLACK
6
CONTINUOUS
10
107.402
20
-91.1938
11
107.402
21
-89.4062
0
LINE
8
BLACK
6
CONTINUOUS
10
107.402
20
-89.4062
11
107.397
21
-89.3608
0
LINE
8
BLACK
6
CONTINUOUS
10
107.397
20
-89.3608
11
107.386
21
-89.3231
0
LINE
8
BLACK
6
CONTINUOUS
10
107.386
20
-89.3231
11
107.367
21
-89.2883
0
LINE
8
BLACK
6
CONTINUOUS
10
107.367
20
-89.2883
11
107.342
21
-89.2579
0
LINE
8
BLACK
6
CONTINUOUS
10
107.342
20
-89.2579
11
107.312
21
-89.2329
0
LINE
8
BLACK
6
CONTINUOUS
10
107.312
20
-89.2329
11
107.277
21
-89.2143
0
LINE
8
BLACK
6
CONTINUOUS
10
107.277
20
-89.2143
11
107.239
21
-89.2029
0
LINE
8
BLACK
6
CONTINUOUS
10
107.239
20
-89.2029
11
107.194
21
-89.1984
0
LINE
8
BLACK
6
CONTINUOUS
10
107.194
20
-89.1984
11
105.406
21
-89.1984
0
LINE
8
BLACK
6
CONTINUOUS
10
132.646
20
-77.45
11
132.54
21
-77.4711
0
LINE
8
BLACK
6
CONTINUOUS
10
132.54
20
-77.4711
11
132.439
21
-77.5126
0
LINE
8
BLACK
6
CONTINUOUS
10
132.439
20
-77.5126
11
132.349
21
-77.5728
0
LINE
8
BLACK
6
CONTINUOUS
10
132.349
20
-77.5728
11
132.273
21
-77.6494
0
LINE
8
BLACK
6
CONTINUOUS
10
132.273
20
-77.6494
11
132.213
21
-77.7395
0
LINE
8
BLACK
6
CONTINUOUS
10
132.213
20
-77.7395
11
132.171
21
-77.8396
0
LINE
8
BLACK
6
CONTINUOUS
10
132.171
20
-77.8396
11
132.15
21
-77.9458
0
LINE
8
BLACK
6
CONTINUOUS
10
132.15
20
-77.9458
11
132.15
21
-78.0378
0
LINE
8
BLACK
6
CONTINUOUS
10
132.15
20
-78.0378
11
132.149
21
-78.0433
0
LINE
8
BLACK
6
CONTINUOUS
10
132.149
20
-78.0433
11
132.15
21
-78.0488
0
LINE
8
BLACK
6
CONTINUOUS
10
132.15
20
-78.0488
11
132.145
21
-78.0649
0
LINE
8
BLACK
6
CONTINUOUS
10
132.145
20
-78.0649
11
132.142
21
-78.0812
0
LINE
8
BLACK
6
CONTINUOUS
10
132.142
20
-78.0812
11
132.14
21
-78.0861
0
LINE
8
BLACK
6
CONTINUOUS
10
132.14
20
-78.0861
11
132.138
21
-78.0914
0
LINE
8
BLACK
6
CONTINUOUS
10
132.138
20
-78.0914
11
132.129
21
-78.105
0
LINE
8
BLACK
6
CONTINUOUS
10
132.129
20
-78.105
11
132.12
21
-78.1194
0
LINE
8
BLACK
6
CONTINUOUS
10
132.12
20
-78.1194
11
132.116
21
-78.123
0
LINE
8
BLACK
6
CONTINUOUS
10
132.116
20
-78.123
11
132.113
21
-78.1276
0
LINE
8
BLACK
6
CONTINUOUS
10
132.113
20
-78.1276
11
130.492
21
-79.7486
0
LINE
8
BLACK
6
CONTINUOUS
10
130.492
20
-79.7486
11
130.478
21
-79.7581
0
LINE
8
BLACK
6
CONTINUOUS
10
130.478
20
-79.7581
11
130.466
21
-79.7687
0
LINE
8
BLACK
6
CONTINUOUS
10
130.466
20
-79.7687
11
130.46
21
-79.7707
0
LINE
8
BLACK
6
CONTINUOUS
10
130.46
20
-79.7707
11
130.456
21
-79.7739
0
LINE
8
BLACK
6
CONTINUOUS
10
130.456
20
-79.7739
11
130.44
21
-79.7782
0
LINE
8
BLACK
6
CONTINUOUS
10
130.44
20
-79.7782
11
130.424
21
-79.7838
0
LINE
8
BLACK
6
CONTINUOUS
10
130.424
20
-79.7838
11
130.418
21
-79.7838
0
LINE
8
BLACK
6
CONTINUOUS
10
130.418
20
-79.7838
11
130.413
21
-79.7853
0
LINE
8
BLACK
6
CONTINUOUS
10
130.413
20
-79.7853
11
130.397
21
-79.7838
0
LINE
8
BLACK
6
CONTINUOUS
10
130.397
20
-79.7838
11
130.38
21
-79.7838
0
LINE
8
BLACK
6
CONTINUOUS
10
130.38
20
-79.7838
11
130.375
21
-79.7819
0
LINE
8
BLACK
6
CONTINUOUS
10
130.375
20
-79.7819
11
130.369
21
-79.7814
0
LINE
8
BLACK
6
CONTINUOUS
10
130.369
20
-79.7814
11
130.354
21
-79.7744
0
LINE
8
BLACK
6
CONTINUOUS
10
130.354
20
-79.7744
11
130.339
21
-79.7687
0
LINE
8
BLACK
6
CONTINUOUS
10
130.339
20
-79.7687
11
130.334
21
-79.7651
0
LINE
8
BLACK
6
CONTINUOUS
10
130.334
20
-79.7651
11
130.329
21
-79.7628
0
LINE
8
BLACK
6
CONTINUOUS
10
130.329
20
-79.7628
11
130.317
21
-79.7511
0
LINE
8
BLACK
6
CONTINUOUS
10
130.317
20
-79.7511
11
130.305
21
-79.7404
0
LINE
8
BLACK
6
CONTINUOUS
10
130.305
20
-79.7404
11
130.302
21
-79.7356
0
LINE
8
BLACK
6
CONTINUOUS
10
130.302
20
-79.7356
11
130.298
21
-79.7316
0
LINE
8
BLACK
6
CONTINUOUS
10
130.298
20
-79.7316
11
130.291
21
-79.7166
0
LINE
8
BLACK
6
CONTINUOUS
10
130.291
20
-79.7166
11
130.283
21
-79.7022
0
LINE
8
BLACK
6
CONTINUOUS
10
130.283
20
-79.7022
11
130.282
21
-79.6967
0
LINE
8
BLACK
6
CONTINUOUS
10
130.282
20
-79.6967
11
130.279
21
-79.6916
0
LINE
8
BLACK
6
CONTINUOUS
10
130.279
20
-79.6916
11
130.278
21
-79.6751
0
LINE
8
BLACK
6
CONTINUOUS
10
130.278
20
-79.6751
11
130.275
21
-79.6588
0
LINE
8
BLACK
6
CONTINUOUS
10
130.275
20
-79.6588
11
130.275
21
-79.5459
0
LINE
8
BLACK
6
CONTINUOUS
10
130.275
20
-79.5459
11
130.254
21
-79.4396
0
LINE
8
BLACK
6
CONTINUOUS
10
130.254
20
-79.4396
11
130.212
21
-79.3395
0
LINE
8
BLACK
6
CONTINUOUS
10
130.212
20
-79.3395
11
130.152
21
-79.2494
0
LINE
8
BLACK
6
CONTINUOUS
10
130.152
20
-79.2494
11
130.143
21
-79.2398
0
LINE
8
BLACK
6
CONTINUOUS
10
130.143
20
-79.2398
11
130.136
21
-79.2307
0
LINE
8
BLACK
6
CONTINUOUS
10
130.136
20
-79.2307
11
130.128
21
-79.2229
0
LINE
8
BLACK
6
CONTINUOUS
10
130.128
20
-79.2229
11
130.124
21
-79.2128
0
LINE
8
BLACK
6
CONTINUOUS
10
130.124
20
-79.2128
11
130.117
21
-79.2037
0
LINE
8
BLACK
6
CONTINUOUS
10
130.117
20
-79.2037
11
130.114
21
-79.193
0
LINE
8
BLACK
6
CONTINUOUS
10
130.114
20
-79.193
11
130.11
21
-79.1829
0
LINE
8
BLACK
6
CONTINUOUS
10
130.11
20
-79.1829
11
130.109
21
-79.1718
0
LINE
8
BLACK
6
CONTINUOUS
10
130.109
20
-79.1718
11
130.106
21
-79.1611
0
LINE
8
BLACK
6
CONTINUOUS
10
130.106
20
-79.1611
11
130.107
21
-79.15
0
LINE
8
BLACK
6
CONTINUOUS
10
130.107
20
-79.15
11
130.106
21
-79.1389
0
LINE
8
BLACK
6
CONTINUOUS
10
130.106
20
-79.1389
11
130.109
21
-79.1282
0
LINE
8
BLACK
6
CONTINUOUS
10
130.109
20
-79.1282
11
130.11
21
-79.1171
0
LINE
8
BLACK
6
CONTINUOUS
10
130.11
20
-79.1171
11
130.114
21
-79.1071
0
LINE
8
BLACK
6
CONTINUOUS
10
130.114
20
-79.1071
11
130.117
21
-79.0963
0
LINE
8
BLACK
6
CONTINUOUS
10
130.117
20
-79.0963
11
130.124
21
-79.0872
0
LINE
8
BLACK
6
CONTINUOUS
10
130.124
20
-79.0872
11
130.128
21
-79.0772
0
LINE
8
BLACK
6
CONTINUOUS
10
130.128
20
-79.0772
11
130.136
21
-79.0693
0
LINE
8
BLACK
6
CONTINUOUS
10
130.136
20
-79.0693
11
130.143
21
-79.0602
0
LINE
8
BLACK
6
CONTINUOUS
10
130.143
20
-79.0602
11
130.152
21
-79.0506
0
LINE
8
BLACK
6
CONTINUOUS
10
130.152
20
-79.0506
11
130.212
21
-78.9605
0
LINE
8
BLACK
6
CONTINUOUS
10
130.212
20
-78.9605
11
130.254
21
-78.8604
0
LINE
8
BLACK
6
CONTINUOUS
10
130.254
20
-78.8604
11
130.275
21
-78.7542
0
LINE
8
BLACK
6
CONTINUOUS
10
130.275
20
-78.7542
11
130.275
21
-78.6458
0
LINE
8
BLACK
6
CONTINUOUS
10
130.275
20
-78.6458
11
130.254
21
-78.5396
0
LINE
8
BLACK
6
CONTINUOUS
10
130.254
20
-78.5396
11
130.212
21
-78.4395
0
LINE
8
BLACK
6
CONTINUOUS
10
130.212
20
-78.4395
11
130.152
21
-78.3494
0
LINE
8
BLACK
6
CONTINUOUS
10
130.152
20
-78.3494
11
130.076
21
-78.2728
0
LINE
8
BLACK
6
CONTINUOUS
10
130.076
20
-78.2728
11
129.986
21
-78.2126
0
LINE
8
BLACK
6
CONTINUOUS
10
129.986
20
-78.2126
11
129.885
21
-78.1711
0
LINE
8
BLACK
6
CONTINUOUS
10
129.885
20
-78.1711
11
129.779
21
-78.15
0
LINE
8
BLACK
6
CONTINUOUS
10
129.779
20
-78.15
11
129.671
21
-78.15
0
LINE
8
BLACK
6
CONTINUOUS
10
129.671
20
-78.15
11
129.565
21
-78.1711
0
LINE
8
BLACK
6
CONTINUOUS
10
129.565
20
-78.1711
11
129.464
21
-78.2126
0
LINE
8
BLACK
6
CONTINUOUS
10
129.464
20
-78.2126
11
129.374
21
-78.2728
0
LINE
8
BLACK
6
CONTINUOUS
10
129.374
20
-78.2728
11
129.309
21
-78.3378
0
LINE
8
BLACK
6
CONTINUOUS
10
129.309
20
-78.3378
11
129.305
21
-78.341
0
LINE
8
BLACK
6
CONTINUOUS
10
129.305
20
-78.341
11
129.301
21
-78.3453
0
LINE
8
BLACK
6
CONTINUOUS
10
129.301
20
-78.3453
11
129.287
21
-78.3536
0
LINE
8
BLACK
6
CONTINUOUS
10
129.287
20
-78.3536
11
129.273
21
-78.3631
0
LINE
8
BLACK
6
CONTINUOUS
10
129.273
20
-78.3631
11
129.268
21
-78.3646
0
LINE
8
BLACK
6
CONTINUOUS
10
129.268
20
-78.3646
11
129.263
21
-78.3673
0
LINE
8
BLACK
6
CONTINUOUS
10
129.263
20
-78.3673
11
129.247
21
-78.3702
0
LINE
8
BLACK
6
CONTINUOUS
10
129.247
20
-78.3702
11
129.231
21
-78.3745
0
LINE
8
BLACK
6
CONTINUOUS
10
129.231
20
-78.3745
11
129.225
21
-78.374
0
LINE
8
BLACK
6
CONTINUOUS
10
129.225
20
-78.374
11
129.22
21
-78.375
0
LINE
8
BLACK
6
CONTINUOUS
10
129.22
20
-78.375
11
128.372
21
-78.375
0
LINE
8
BLACK
6
CONTINUOUS
10
128.372
20
-78.375
11
128.366
21
-78.3739
0
LINE
8
BLACK
6
CONTINUOUS
10
128.366
20
-78.3739
11
128.36
21
-78.3744
0
LINE
8
BLACK
6
CONTINUOUS
10
128.36
20
-78.3744
11
128.35
21
-78.3734
0
LINE
8
BLACK
6
CONTINUOUS
10
128.35
20
-78.3734
11
128.286
21
-78.3797
0
LINE
8
BLACK
6
CONTINUOUS
10
128.286
20
-78.3797
11
128.278
21
-78.3821
0
LINE
8
BLACK
6
CONTINUOUS
10
128.278
20
-78.3821
11
128.278
21
-78.3821
0
LINE
8
BLACK
6
CONTINUOUS
10
128.278
20
-78.3821
11
128.278
21
-78.3821
0
LINE
8
BLACK
6
CONTINUOUS
10
128.278
20
-78.3821
11
128.225
21
-78.3983
0
LINE
8
BLACK
6
CONTINUOUS
10
128.225
20
-78.3983
11
128.169
21
-78.4285
0
LINE
8
BLACK
6
CONTINUOUS
10
128.169
20
-78.4285
11
128.119
21
-78.4691
0
LINE
8
BLACK
6
CONTINUOUS
10
128.119
20
-78.4691
11
128.113
21
-78.4767
0
LINE
8
BLACK
6
CONTINUOUS
10
128.113
20
-78.4767
11
128.108
21
-78.4808
0
LINE
8
BLACK
6
CONTINUOUS
10
128.108
20
-78.4808
11
128.104
21
-78.4859
0
LINE
8
BLACK
6
CONTINUOUS
10
128.104
20
-78.4859
11
127.328
21
-79.2628
0
LINE
8
BLACK
6
CONTINUOUS
10
127.328
20
-79.2628
11
127.323
21
-79.266
0
LINE
8
BLACK
6
CONTINUOUS
10
127.323
20
-79.266
11
127.319
21
-79.2703
0
LINE
8
BLACK
6
CONTINUOUS
10
127.319
20
-79.2703
11
127.305
21
-79.2786
0
LINE
8
BLACK
6
CONTINUOUS
10
127.305
20
-79.2786
11
127.291
21
-79.2881
0
LINE
8
BLACK
6
CONTINUOUS
10
127.291
20
-79.2881
11
127.286
21
-79.2895
0
LINE
8
BLACK
6
CONTINUOUS
10
127.286
20
-79.2895
11
127.281
21
-79.2923
0
LINE
8
BLACK
6
CONTINUOUS
10
127.281
20
-79.2923
11
127.265
21
-79.2952
0
LINE
8
BLACK
6
CONTINUOUS
10
127.265
20
-79.2952
11
127.249
21
-79.2995
0
LINE
8
BLACK
6
CONTINUOUS
10
127.249
20
-79.2995
11
127.243
21
-79.299
0
LINE
8
BLACK
6
CONTINUOUS
10
127.243
20
-79.299
11
127.238
21
-79.3
0
LINE
8
BLACK
6
CONTINUOUS
10
127.238
20
-79.3
11
127.146
21
-79.3
0
LINE
8
BLACK
6
CONTINUOUS
10
127.146
20
-79.3
11
127.04
21
-79.3211
0
LINE
8
BLACK
6
CONTINUOUS
10
127.04
20
-79.3211
11
126.939
21
-79.3626
0
LINE
8
BLACK
6
CONTINUOUS
10
126.939
20
-79.3626
11
126.849
21
-79.4228
0
LINE
8
BLACK
6
CONTINUOUS
10
126.849
20
-79.4228
11
126.773
21
-79.4994
0
LINE
8
BLACK
6
CONTINUOUS
10
126.773
20
-79.4994
11
126.713
21
-79.5895
0
LINE
8
BLACK
6
CONTINUOUS
10
126.713
20
-79.5895
11
126.671
21
-79.6896
0
LINE
8
BLACK
6
CONTINUOUS
10
126.671
20
-79.6896
11
126.65
21
-79.7958
0
LINE
8
BLACK
6
CONTINUOUS
10
126.65
20
-79.7958
11
126.65
21
-79.9042
0
LINE
8
BLACK
6
CONTINUOUS
10
126.65
20
-79.9042
11
126.671
21
-80.0104
0
LINE
8
BLACK
6
CONTINUOUS
10
126.671
20
-80.0104
11
126.713
21
-80.1105
0
LINE
8
BLACK
6
CONTINUOUS
10
126.713
20
-80.1105
11
126.773
21
-80.2006
0
LINE
8
BLACK
6
CONTINUOUS
10
126.773
20
-80.2006
11
126.833
21
-80.2609
0
LINE
8
BLACK
6
CONTINUOUS
10
126.833
20
-80.2609
11
126.839
21
-80.27
0
LINE
8
BLACK
6
CONTINUOUS
10
126.839
20
-80.27
11
126.847
21
-80.2778
0
LINE
8
BLACK
6
CONTINUOUS
10
126.847
20
-80.2778
11
126.852
21
-80.2879
0
LINE
8
BLACK
6
CONTINUOUS
10
126.852
20
-80.2879
11
126.858
21
-80.297
0
LINE
8
BLACK
6
CONTINUOUS
10
126.858
20
-80.297
11
126.861
21
-80.3077
0
LINE
8
BLACK
6
CONTINUOUS
10
126.861
20
-80.3077
11
126.866
21
-80.3178
0
LINE
8
BLACK
6
CONTINUOUS
10
126.866
20
-80.3178
11
126.867
21
-80.3289
0
LINE
8
BLACK
6
CONTINUOUS
10
126.867
20
-80.3289
11
126.87
21
-80.3396
0
LINE
8
BLACK
6
CONTINUOUS
10
126.87
20
-80.3396
11
126.869
21
-80.3507
0
LINE
8
BLACK
6
CONTINUOUS
10
126.869
20
-80.3507
11
126.87
21
-80.3617
0
LINE
8
BLACK
6
CONTINUOUS
10
126.87
20
-80.3617
11
126.867
21
-80.3725
0
LINE
8
BLACK
6
CONTINUOUS
10
126.867
20
-80.3725
11
126.866
21
-80.3835
0
LINE
8
BLACK
6
CONTINUOUS
10
126.866
20
-80.3835
11
126.861
21
-80.3936
0
LINE
8
BLACK
6
CONTINUOUS
10
126.861
20
-80.3936
11
126.858
21
-80.4043
0
LINE
8
BLACK
6
CONTINUOUS
10
126.858
20
-80.4043
11
126.852
21
-80.4134
0
LINE
8
BLACK
6
CONTINUOUS
10
126.852
20
-80.4134
11
126.847
21
-80.4235
0
LINE
8
BLACK
6
CONTINUOUS
10
126.847
20
-80.4235
11
126.839
21
-80.4314
0
LINE
8
BLACK
6
CONTINUOUS
10
126.839
20
-80.4314
11
126.833
21
-80.4405
0
LINE
8
BLACK
6
CONTINUOUS
10
126.833
20
-80.4405
11
126.776
21
-80.4979
0
LINE
8
BLACK
6
CONTINUOUS
10
126.776
20
-80.4979
11
126.715
21
-80.5879
0
LINE
8
BLACK
6
CONTINUOUS
10
126.715
20
-80.5879
11
126.674
21
-80.688
0
LINE
8
BLACK
6
CONTINUOUS
10
126.674
20
-80.688
11
126.653
21
-80.7943
0
LINE
8
BLACK
6
CONTINUOUS
10
126.653
20
-80.7943
11
126.653
21
-80.9026
0
LINE
8
BLACK
6
CONTINUOUS
10
126.653
20
-80.9026
11
126.674
21
-81.0089
0
LINE
8
BLACK
6
CONTINUOUS
10
126.674
20
-81.0089
11
126.715
21
-81.109
0
LINE
8
BLACK
6
CONTINUOUS
10
126.715
20
-81.109
11
126.776
21
-81.1991
0
LINE
8
BLACK
6
CONTINUOUS
10
126.776
20
-81.1991
11
126.852
21
-81.2757
0
LINE
8
BLACK
6
CONTINUOUS
10
126.852
20
-81.2757
11
126.942
21
-81.3359
0
LINE
8
BLACK
6
CONTINUOUS
10
126.942
20
-81.3359
11
127.023
21
-81.3692
0
LINE
8
BLACK
6
CONTINUOUS
10
127.023
20
-81.3692
11
127.035
21
-81.3767
0
LINE
8
BLACK
6
CONTINUOUS
10
127.035
20
-81.3767
11
127.047
21
-81.3825
0
LINE
8
BLACK
6
CONTINUOUS
10
127.047
20
-81.3825
11
127.053
21
-81.3884
0
LINE
8
BLACK
6
CONTINUOUS
10
127.053
20
-81.3884
11
127.06
21
-81.3929
0
LINE
8
BLACK
6
CONTINUOUS
10
127.06
20
-81.3929
11
127.068
21
-81.4039
0
LINE
8
BLACK
6
CONTINUOUS
10
127.068
20
-81.4039
11
127.078
21
-81.4137
0
LINE
8
BLACK
6
CONTINUOUS
10
127.078
20
-81.4137
11
127.082
21
-81.4213
0
LINE
8
BLACK
6
CONTINUOUS
10
127.082
20
-81.4213
11
127.087
21
-81.4279
0
LINE
8
BLACK
6
CONTINUOUS
10
127.087
20
-81.4279
11
127.091
21
-81.4411
0
LINE
8
BLACK
6
CONTINUOUS
10
127.091
20
-81.4411
11
127.097
21
-81.4537
0
LINE
8
BLACK
6
CONTINUOUS
10
127.097
20
-81.4537
11
127.098
21
-81.462
0
LINE
8
BLACK
6
CONTINUOUS
10
127.098
20
-81.462
11
127.1
21
-81.47
0
LINE
8
BLACK
6
CONTINUOUS
10
127.1
20
-81.47
11
127.1
21
-81.4838
0
LINE
8
BLACK
6
CONTINUOUS
10
127.1
20
-81.4838
11
127.101
21
-81.4976
0
LINE
8
BLACK
6
CONTINUOUS
10
127.101
20
-81.4976
11
127.099
21
-81.5057
0
LINE
8
BLACK
6
CONTINUOUS
10
127.099
20
-81.5057
11
127.098
21
-81.514
0
LINE
8
BLACK
6
CONTINUOUS
10
127.098
20
-81.514
11
127.093
21
-81.5268
0
LINE
8
BLACK
6
CONTINUOUS
10
127.093
20
-81.5268
11
127.089
21
-81.5402
0
LINE
8
BLACK
6
CONTINUOUS
10
127.089
20
-81.5402
11
127.085
21
-81.5471
0
LINE
8
BLACK
6
CONTINUOUS
10
127.085
20
-81.5471
11
127.081
21
-81.5548
0
LINE
8
BLACK
6
CONTINUOUS
10
127.081
20
-81.5548
11
127.072
21
-81.565
0
LINE
8
BLACK
6
CONTINUOUS
10
127.072
20
-81.565
11
127.064
21
-81.5763
0
LINE
8
BLACK
6
CONTINUOUS
10
127.064
20
-81.5763
11
126.986
21
-81.6545
0
LINE
8
BLACK
6
CONTINUOUS
10
126.986
20
-81.6545
11
126.981
21
-81.6581
0
LINE
8
BLACK
6
CONTINUOUS
10
126.981
20
-81.6581
11
126.977
21
-81.6628
0
LINE
8
BLACK
6
CONTINUOUS
10
126.977
20
-81.6628
11
126.969
21
-81.6691
0
LINE
8
BLACK
6
CONTINUOUS
10
126.969
20
-81.6691
11
126.928
21
-81.7186
0
LINE
8
BLACK
6
CONTINUOUS
10
126.928
20
-81.7186
11
126.898
21
-81.775
0
LINE
8
BLACK
6
CONTINUOUS
10
126.898
20
-81.775
11
126.88
21
-81.8363
0
LINE
8
BLACK
6
CONTINUOUS
10
126.88
20
-81.8363
11
126.873
21
-81.9
0
LINE
8
BLACK
6
CONTINUOUS
10
126.873
20
-81.9
11
126.874
21
-81.9098
0
LINE
8
BLACK
6
CONTINUOUS
10
126.874
20
-81.9098
11
126.874
21
-81.916
0
LINE
8
BLACK
6
CONTINUOUS
10
126.874
20
-81.916
11
126.875
21
-81.9222
0
LINE
8
BLACK
6
CONTINUOUS
10
126.875
20
-81.9222
11
126.875
21
-85.8628
0
LINE
8
BLACK
6
CONTINUOUS
10
126.875
20
-85.8628
11
126.874
21
-85.8683
0
LINE
8
BLACK
6
CONTINUOUS
10
126.874
20
-85.8683
11
126.875
21
-85.8738
0
LINE
8
BLACK
6
CONTINUOUS
10
126.875
20
-85.8738
11
126.87
21
-85.8899
0
LINE
8
BLACK
6
CONTINUOUS
10
126.87
20
-85.8899
11
126.867
21
-85.9062
0
LINE
8
BLACK
6
CONTINUOUS
10
126.867
20
-85.9062
11
126.865
21
-85.911
0
LINE
8
BLACK
6
CONTINUOUS
10
126.865
20
-85.911
11
126.863
21
-85.9164
0
LINE
8
BLACK
6
CONTINUOUS
10
126.863
20
-85.9164
11
126.854
21
-85.93
0
LINE
8
BLACK
6
CONTINUOUS
10
126.854
20
-85.93
11
126.845
21
-85.9444
0
LINE
8
BLACK
6
CONTINUOUS
10
126.845
20
-85.9444
11
126.841
21
-85.948
0
LINE
8
BLACK
6
CONTINUOUS
10
126.841
20
-85.948
11
126.838
21
-85.9526
0
LINE
8
BLACK
6
CONTINUOUS
10
126.838
20
-85.9526
11
124.828
21
-87.9628
0
LINE
8
BLACK
6
CONTINUOUS
10
124.828
20
-87.9628
11
124.823
21
-87.966
0
LINE
8
BLACK
6
CONTINUOUS
10
124.823
20
-87.966
11
124.819
21
-87.9703
0
LINE
8
BLACK
6
CONTINUOUS
10
124.819
20
-87.9703
11
124.805
21
-87.9786
0
LINE
8
BLACK
6
CONTINUOUS
10
124.805
20
-87.9786
11
124.791
21
-87.9881
0
LINE
8
BLACK
6
CONTINUOUS
10
124.791
20
-87.9881
11
124.786
21
-87.9895
0
LINE
8
BLACK
6
CONTINUOUS
10
124.786
20
-87.9895
11
124.781
21
-87.9923
0
LINE
8
BLACK
6
CONTINUOUS
10
124.781
20
-87.9923
11
124.765
21
-87.9952
0
LINE
8
BLACK
6
CONTINUOUS
10
124.765
20
-87.9952
11
124.749
21
-87.9995
0
LINE
8
BLACK
6
CONTINUOUS
10
124.749
20
-87.9995
11
124.743
21
-87.999
0
LINE
8
BLACK
6
CONTINUOUS
10
124.743
20
-87.999
11
124.738
21
-88
0
LINE
8
BLACK
6
CONTINUOUS
10
124.738
20
-88
11
124.646
21
-88
0
LINE
8
BLACK
6
CONTINUOUS
10
124.646
20
-88
11
124.54
21
-88.0211
0
LINE
8
BLACK
6
CONTINUOUS
10
124.54
20
-88.0211
11
124.439
21
-88.0626
0
LINE
8
BLACK
6
CONTINUOUS
10
124.439
20
-88.0626
11
124.349
21
-88.1228
0
LINE
8
BLACK
6
CONTINUOUS
10
124.349
20
-88.1228
11
124.273
21
-88.1994
0
LINE
8
BLACK
6
CONTINUOUS
10
124.273
20
-88.1994
11
124.213
21
-88.2895
0
LINE
8
BLACK
6
CONTINUOUS
10
124.213
20
-88.2895
11
124.171
21
-88.3896
0
LINE
8
BLACK
6
CONTINUOUS
10
124.171
20
-88.3896
11
124.15
21
-88.4958
0
LINE
8
BLACK
6
CONTINUOUS
10
124.15
20
-88.4958
11
124.15
21
-88.6042
0
LINE
8
BLACK
6
CONTINUOUS
10
124.15
20
-88.6042
11
124.171
21
-88.7104
0
LINE
8
BLACK
6
CONTINUOUS
10
124.171
20
-88.7104
11
124.213
21
-88.8105
0
LINE
8
BLACK
6
CONTINUOUS
10
124.213
20
-88.8105
11
124.273
21
-88.9006
0
LINE
8
BLACK
6
CONTINUOUS
10
124.273
20
-88.9006
11
124.349
21
-88.9772
0
LINE
8
BLACK
6
CONTINUOUS
10
124.349
20
-88.9772
11
124.439
21
-89.0374
0
LINE
8
BLACK
6
CONTINUOUS
10
124.439
20
-89.0374
11
124.54
21
-89.0789
0
LINE
8
BLACK
6
CONTINUOUS
10
124.54
20
-89.0789
11
124.646
21
-89.1
0
LINE
8
BLACK
6
CONTINUOUS
10
124.646
20
-89.1
11
124.754
21
-89.1
0
LINE
8
BLACK
6
CONTINUOUS
10
124.754
20
-89.1
11
124.86
21
-89.0789
0
LINE
8
BLACK
6
CONTINUOUS
10
124.86
20
-89.0789
11
124.961
21
-89.0374
0
LINE
8
BLACK
6
CONTINUOUS
10
124.961
20
-89.0374
11
125.051
21
-88.9772
0
LINE
8
BLACK
6
CONTINUOUS
10
125.051
20
-88.9772
11
125.127
21
-88.9006
0
LINE
8
BLACK
6
CONTINUOUS
10
125.127
20
-88.9006
11
125.187
21
-88.8105
0
LINE
8
BLACK
6
CONTINUOUS
10
125.187
20
-88.8105
11
125.229
21
-88.7104
0
LINE
8
BLACK
6
CONTINUOUS
10
125.229
20
-88.7104
11
125.25
21
-88.6042
0
LINE
8
BLACK
6
CONTINUOUS
10
125.25
20
-88.6042
11
125.25
21
-88.5122
0
LINE
8
BLACK
6
CONTINUOUS
10
125.25
20
-88.5122
11
125.251
21
-88.5067
0
LINE
8
BLACK
6
CONTINUOUS
10
125.251
20
-88.5067
11
125.25
21
-88.5012
0
LINE
8
BLACK
6
CONTINUOUS
10
125.25
20
-88.5012
11
125.255
21
-88.4851
0
LINE
8
BLACK
6
CONTINUOUS
10
125.255
20
-88.4851
11
125.258
21
-88.4688
0
LINE
8
BLACK
6
CONTINUOUS
10
125.258
20
-88.4688
11
125.26
21
-88.4639
0
LINE
8
BLACK
6
CONTINUOUS
10
125.26
20
-88.4639
11
125.262
21
-88.4585
0
LINE
8
BLACK
6
CONTINUOUS
10
125.262
20
-88.4585
11
125.271
21
-88.445
0
LINE
8
BLACK
6
CONTINUOUS
10
125.271
20
-88.445
11
125.28
21
-88.4306
0
LINE
8
BLACK
6
CONTINUOUS
10
125.28
20
-88.4306
11
125.284
21
-88.427
0
LINE
8
BLACK
6
CONTINUOUS
10
125.284
20
-88.427
11
125.287
21
-88.4224
0
LINE
8
BLACK
6
CONTINUOUS
10
125.287
20
-88.4224
11
127.414
21
-86.2955
0
LINE
8
BLACK
6
CONTINUOUS
10
127.414
20
-86.2955
11
127.419
21
-86.2919
0
LINE
8
BLACK
6
CONTINUOUS
10
127.419
20
-86.2919
11
127.423
21
-86.2871
0
LINE
8
BLACK
6
CONTINUOUS
10
127.423
20
-86.2871
11
127.431
21
-86.2809
0
LINE
8
BLACK
6
CONTINUOUS
10
127.431
20
-86.2809
11
127.472
21
-86.2314
0
LINE
8
BLACK
6
CONTINUOUS
10
127.472
20
-86.2314
11
127.502
21
-86.175
0
LINE
8
BLACK
6
CONTINUOUS
10
127.502
20
-86.175
11
127.52
21
-86.1137
0
LINE
8
BLACK
6
CONTINUOUS
10
127.52
20
-86.1137
11
127.521
21
-86.1076
0
LINE
8
BLACK
6
CONTINUOUS
10
127.521
20
-86.1076
11
127.521
21
-86.1076
0
LINE
8
BLACK
6
CONTINUOUS
10
127.521
20
-86.1076
11
127.527
21
-86.05
0
LINE
8
BLACK
6
CONTINUOUS
10
127.527
20
-86.05
11
127.526
21
-86.0402
0
LINE
8
BLACK
6
CONTINUOUS
10
127.526
20
-86.0402
11
127.526
21
-86.034
0
LINE
8
BLACK
6
CONTINUOUS
10
127.526
20
-86.034
11
127.525
21
-86.0278
0
LINE
8
BLACK
6
CONTINUOUS
10
127.525
20
-86.0278
11
127.525
21
-82.0872
0
LINE
8
BLACK
6
CONTINUOUS
10
127.525
20
-82.0872
11
127.526
21
-82.0817
0
LINE
8
BLACK
6
CONTINUOUS
10
127.526
20
-82.0817
11
127.525
21
-82.0762
0
LINE
8
BLACK
6
CONTINUOUS
10
127.525
20
-82.0762
11
127.53
21
-82.0601
0
LINE
8
BLACK
6
CONTINUOUS
10
127.53
20
-82.0601
11
127.533
21
-82.0438
0
LINE
8
BLACK
6
CONTINUOUS
10
127.533
20
-82.0438
11
127.535
21
-82.0389
0
LINE
8
BLACK
6
CONTINUOUS
10
127.535
20
-82.0389
11
127.537
21
-82.0336
0
LINE
8
BLACK
6
CONTINUOUS
10
127.537
20
-82.0336
11
127.546
21
-82.02
0
LINE
8
BLACK
6
CONTINUOUS
10
127.546
20
-82.02
11
127.555
21
-82.0056
0
LINE
8
BLACK
6
CONTINUOUS
10
127.555
20
-82.0056
11
127.559
21
-82.002
0
LINE
8
BLACK
6
CONTINUOUS
10
127.559
20
-82.002
11
127.562
21
-81.9974
0
LINE
8
BLACK
6
CONTINUOUS
10
127.562
20
-81.9974
11
128.797
21
-80.7622
0
LINE
8
BLACK
6
CONTINUOUS
10
128.797
20
-80.7622
11
128.802
21
-80.759
0
LINE
8
BLACK
6
CONTINUOUS
10
128.802
20
-80.759
11
128.806
21
-80.7547
0
LINE
8
BLACK
6
CONTINUOUS
10
128.806
20
-80.7547
11
128.82
21
-80.7464
0
LINE
8
BLACK
6
CONTINUOUS
10
128.82
20
-80.7464
11
128.834
21
-80.7369
0
LINE
8
BLACK
6
CONTINUOUS
10
128.834
20
-80.7369
11
128.839
21
-80.7355
0
LINE
8
BLACK
6
CONTINUOUS
10
128.839
20
-80.7355
11
128.844
21
-80.7327
0
LINE
8
BLACK
6
CONTINUOUS
10
128.844
20
-80.7327
11
128.86
21
-80.7298
0
LINE
8
BLACK
6
CONTINUOUS
10
128.86
20
-80.7298
11
128.876
21
-80.7255
0
LINE
8
BLACK
6
CONTINUOUS
10
128.876
20
-80.7255
11
128.882
21
-80.726
0
LINE
8
BLACK
6
CONTINUOUS
10
128.882
20
-80.726
11
128.887
21
-80.725
0
LINE
8
BLACK
6
CONTINUOUS
10
128.887
20
-80.725
11
130.278
21
-80.725
0
LINE
8
BLACK
6
CONTINUOUS
10
130.278
20
-80.725
11
130.284
21
-80.7261
0
LINE
8
BLACK
6
CONTINUOUS
10
130.284
20
-80.7261
11
130.29
21
-80.7256
0
LINE
8
BLACK
6
CONTINUOUS
10
130.29
20
-80.7256
11
130.3
21
-80.7266
0
LINE
8
BLACK
6
CONTINUOUS
10
130.3
20
-80.7266
11
130.31
21
-80.7256
0
LINE
8
BLACK
6
CONTINUOUS
10
130.31
20
-80.7256
11
130.31
21
-80.7256
0
LINE
8
BLACK
6
CONTINUOUS
10
130.31
20
-80.7256
11
130.364
21
-80.7203
0
LINE
8
BLACK
6
CONTINUOUS
10
130.364
20
-80.7203
11
130.425
21
-80.7017
0
LINE
8
BLACK
6
CONTINUOUS
10
130.425
20
-80.7017
11
130.481
21
-80.6715
0
LINE
8
BLACK
6
CONTINUOUS
10
130.481
20
-80.6715
11
130.531
21
-80.6309
0
LINE
8
BLACK
6
CONTINUOUS
10
130.531
20
-80.6309
11
130.537
21
-80.6233
0
LINE
8
BLACK
6
CONTINUOUS
10
130.537
20
-80.6233
11
130.542
21
-80.6192
0
LINE
8
BLACK
6
CONTINUOUS
10
130.542
20
-80.6192
11
130.546
21
-80.6141
0
LINE
8
BLACK
6
CONTINUOUS
10
130.546
20
-80.6141
11
131.014
21
-80.1459
0
LINE
8
BLACK
6
CONTINUOUS
10
131.014
20
-80.1459
11
132.112
21
-79.0477
0
LINE
8
BLACK
6
CONTINUOUS
10
132.112
20
-79.0477
11
132.112
21
-79.0477
0
LINE
8
BLACK
6
CONTINUOUS
10
132.112
20
-79.0477
11
132.572
21
-78.5872
0
LINE
8
BLACK
6
CONTINUOUS
10
132.572
20
-78.5872
11
132.577
21
-78.584
0
LINE
8
BLACK
6
CONTINUOUS
10
132.577
20
-78.584
11
132.581
21
-78.5797
0
LINE
8
BLACK
6
CONTINUOUS
10
132.581
20
-78.5797
11
132.595
21
-78.5714
0
LINE
8
BLACK
6
CONTINUOUS
10
132.595
20
-78.5714
11
132.609
21
-78.5619
0
LINE
8
BLACK
6
CONTINUOUS
10
132.609
20
-78.5619
11
132.614
21
-78.5605
0
LINE
8
BLACK
6
CONTINUOUS
10
132.614
20
-78.5605
11
132.619
21
-78.5577
0
LINE
8
BLACK
6
CONTINUOUS
10
132.619
20
-78.5577
11
132.635
21
-78.5548
0
LINE
8
BLACK
6
CONTINUOUS
10
132.635
20
-78.5548
11
132.651
21
-78.5505
0
LINE
8
BLACK
6
CONTINUOUS
10
132.651
20
-78.5505
11
132.657
21
-78.551
0
LINE
8
BLACK
6
CONTINUOUS
10
132.657
20
-78.551
11
132.662
21
-78.55
0
LINE
8
BLACK
6
CONTINUOUS
10
132.662
20
-78.55
11
132.754
21
-78.55
0
LINE
8
BLACK
6
CONTINUOUS
10
132.754
20
-78.55
11
132.86
21
-78.5289
0
LINE
8
BLACK
6
CONTINUOUS
10
132.86
20
-78.5289
11
132.961
21
-78.4874
0
LINE
8
BLACK
6
CONTINUOUS
10
132.961
20
-78.4874
11
133.051
21
-78.4272
0
LINE
8
BLACK
6
CONTINUOUS
10
133.051
20
-78.4272
11
133.127
21
-78.3506
0
LINE
8
BLACK
6
CONTINUOUS
10
133.127
20
-78.3506
11
133.187
21
-78.2605
0
LINE
8
BLACK
6
CONTINUOUS
10
133.187
20
-78.2605
11
133.229
21
-78.1604
0
LINE
8
BLACK
6
CONTINUOUS
10
133.229
20
-78.1604
11
133.25
21
-78.0542
0
LINE
8
BLACK
6
CONTINUOUS
10
133.25
20
-78.0542
11
133.25
21
-77.9458
0
LINE
8
BLACK
6
CONTINUOUS
10
133.25
20
-77.9458
11
133.229
21
-77.8396
0
LINE
8
BLACK
6
CONTINUOUS
10
133.229
20
-77.8396
11
133.187
21
-77.7395
0
LINE
8
BLACK
6
CONTINUOUS
10
133.187
20
-77.7395
11
133.127
21
-77.6494
0
LINE
8
BLACK
6
CONTINUOUS
10
133.127
20
-77.6494
11
133.051
21
-77.5728
0
LINE
8
BLACK
6
CONTINUOUS
10
133.051
20
-77.5728
11
132.961
21
-77.5126
0
LINE
8
BLACK
6
CONTINUOUS
10
132.961
20
-77.5126
11
132.86
21
-77.4711
0
LINE
8
BLACK
6
CONTINUOUS
10
132.86
20
-77.4711
11
132.754
21
-77.45
0
LINE
8
BLACK
6
CONTINUOUS
10
132.754
20
-77.45
11
132.646
21
-77.45
0
LINE
8
BLACK
6
CONTINUOUS
10
110.124
20
-87.0501
11
110.125
21
-87.0556
0
LINE
8
BLACK
6
CONTINUOUS
10
110.125
20
-87.0556
11
110.12
21
-87.0717
0
LINE
8
BLACK
6
CONTINUOUS
10
110.12
20
-87.0717
11
110.117
21
-87.088
0
LINE
8
BLACK
6
CONTINUOUS
10
110.117
20
-87.088
11
110.115
21
-87.0929
0
LINE
8
BLACK
6
CONTINUOUS
10
110.115
20
-87.0929
11
110.113
21
-87.0982
0
LINE
8
BLACK
6
CONTINUOUS
10
110.113
20
-87.0982
11
110.104
21
-87.1118
0
LINE
8
BLACK
6
CONTINUOUS
10
110.104
20
-87.1118
11
110.095
21
-87.1262
0
LINE
8
BLACK
6
CONTINUOUS
10
110.095
20
-87.1262
11
110.091
21
-87.1298
0
LINE
8
BLACK
6
CONTINUOUS
10
110.091
20
-87.1298
11
110.088
21
-87.1344
0
LINE
8
BLACK
6
CONTINUOUS
10
110.088
20
-87.1344
11
110.073
21
-87.1494
0
LINE
8
BLACK
6
CONTINUOUS
10
110.073
20
-87.1494
11
110.013
21
-87.2395
0
LINE
8
BLACK
6
CONTINUOUS
10
110.013
20
-87.2395
11
109.971
21
-87.3396
0
LINE
8
BLACK
6
CONTINUOUS
10
109.971
20
-87.3396
11
109.95
21
-87.4458
0
LINE
8
BLACK
6
CONTINUOUS
10
109.95
20
-87.4458
11
109.95
21
-87.5542
0
LINE
8
BLACK
6
CONTINUOUS
10
109.95
20
-87.5542
11
109.971
21
-87.6604
0
LINE
8
BLACK
6
CONTINUOUS
10
109.971
20
-87.6604
11
110.013
21
-87.7605
0
LINE
8
BLACK
6
CONTINUOUS
10
110.013
20
-87.7605
11
110.073
21
-87.8506
0
LINE
8
BLACK
6
CONTINUOUS
10
110.073
20
-87.8506
11
110.149
21
-87.9272
0
LINE
8
BLACK
6
CONTINUOUS
10
110.149
20
-87.9272
11
110.239
21
-87.9874
0
LINE
8
BLACK
6
CONTINUOUS
10
110.239
20
-87.9874
11
110.34
21
-88.0289
0
LINE
8
BLACK
6
CONTINUOUS
10
110.34
20
-88.0289
11
110.446
21
-88.05
0
LINE
8
BLACK
6
CONTINUOUS
10
110.446
20
-88.05
11
110.554
21
-88.05
0
LINE
8
BLACK
6
CONTINUOUS
10
110.554
20
-88.05
11
110.66
21
-88.0289
0
LINE
8
BLACK
6
CONTINUOUS
10
110.66
20
-88.0289
11
110.761
21
-87.9874
0
LINE
8
BLACK
6
CONTINUOUS
10
110.761
20
-87.9874
11
110.851
21
-87.9272
0
LINE
8
BLACK
6
CONTINUOUS
10
110.851
20
-87.9272
11
110.927
21
-87.8506
0
LINE
8
BLACK
6
CONTINUOUS
10
110.927
20
-87.8506
11
110.987
21
-87.7605
0
LINE
8
BLACK
6
CONTINUOUS
10
110.987
20
-87.7605
11
111.029
21
-87.6604
0
LINE
8
BLACK
6
CONTINUOUS
10
111.029
20
-87.6604
11
111.05
21
-87.5542
0
LINE
8
BLACK
6
CONTINUOUS
10
111.05
20
-87.5542
11
111.05
21
-87.4458
0
LINE
8
BLACK
6
CONTINUOUS
10
111.05
20
-87.4458
11
111.029
21
-87.3396
0
LINE
8
BLACK
6
CONTINUOUS
10
111.029
20
-87.3396
11
110.987
21
-87.2395
0
LINE
8
BLACK
6
CONTINUOUS
10
110.987
20
-87.2395
11
110.927
21
-87.1494
0
LINE
8
BLACK
6
CONTINUOUS
10
110.927
20
-87.1494
11
110.912
21
-87.1344
0
LINE
8
BLACK
6
CONTINUOUS
10
110.912
20
-87.1344
11
110.909
21
-87.1298
0
LINE
8
BLACK
6
CONTINUOUS
10
110.909
20
-87.1298
11
110.905
21
-87.1262
0
LINE
8
BLACK
6
CONTINUOUS
10
110.905
20
-87.1262
11
110.896
21
-87.1118
0
LINE
8
BLACK
6
CONTINUOUS
10
110.896
20
-87.1118
11
110.887
21
-87.0982
0
LINE
8
BLACK
6
CONTINUOUS
10
110.887
20
-87.0982
11
110.885
21
-87.0929
0
LINE
8
BLACK
6
CONTINUOUS
10
110.885
20
-87.0929
11
110.883
21
-87.088
0
LINE
8
BLACK
6
CONTINUOUS
10
110.883
20
-87.088
11
110.88
21
-87.0717
0
LINE
8
BLACK
6
CONTINUOUS
10
110.88
20
-87.0717
11
110.875
21
-87.0556
0
LINE
8
BLACK
6
CONTINUOUS
10
110.875
20
-87.0556
11
110.876
21
-87.0501
0
LINE
8
BLACK
6
CONTINUOUS
10
110.876
20
-87.0501
11
110.875
21
-87.0446
0
LINE
8
BLACK
6
CONTINUOUS
10
110.875
20
-87.0446
11
110.875
21
-84.5079
0
LINE
8
BLACK
6
CONTINUOUS
10
110.875
20
-84.5079
11
110.876
21
-84.5024
0
LINE
8
BLACK
6
CONTINUOUS
10
110.876
20
-84.5024
11
110.875
21
-84.4969
0
LINE
8
BLACK
6
CONTINUOUS
10
110.875
20
-84.4969
11
110.88
21
-84.4808
0
LINE
8
BLACK
6
CONTINUOUS
10
110.88
20
-84.4808
11
110.883
21
-84.4645
0
LINE
8
BLACK
6
CONTINUOUS
10
110.883
20
-84.4645
11
110.885
21
-84.4597
0
LINE
8
BLACK
6
CONTINUOUS
10
110.885
20
-84.4597
11
110.887
21
-84.4543
0
LINE
8
BLACK
6
CONTINUOUS
10
110.887
20
-84.4543
11
110.896
21
-84.4407
0
LINE
8
BLACK
6
CONTINUOUS
10
110.896
20
-84.4407
11
110.905
21
-84.4263
0
LINE
8
BLACK
6
CONTINUOUS
10
110.905
20
-84.4263
11
110.909
21
-84.4227
0
LINE
8
BLACK
6
CONTINUOUS
10
110.909
20
-84.4227
11
110.912
21
-84.4181
0
LINE
8
BLACK
6
CONTINUOUS
10
110.912
20
-84.4181
11
114.993
21
-80.3372
0
LINE
8
BLACK
6
CONTINUOUS
10
114.993
20
-80.3372
11
114.998
21
-80.334
0
LINE
8
BLACK
6
CONTINUOUS
10
114.998
20
-80.334
11
115.001
21
-80.3297
0
LINE
8
BLACK
6
CONTINUOUS
10
115.001
20
-80.3297
11
115.016
21
-80.3214
0
LINE
8
BLACK
6
CONTINUOUS
10
115.016
20
-80.3214
11
115.029
21
-80.3119
0
LINE
8
BLACK
6
CONTINUOUS
10
115.029
20
-80.3119
11
115.035
21
-80.3105
0
LINE
8
BLACK
6
CONTINUOUS
10
115.035
20
-80.3105
11
115.039
21
-80.3077
0
LINE
8
BLACK
6
CONTINUOUS
10
115.039
20
-80.3077
11
115.056
21
-80.3048
0
LINE
8
BLACK
6
CONTINUOUS
10
115.056
20
-80.3048
11
115.072
21
-80.3005
0
LINE
8
BLACK
6
CONTINUOUS
10
115.072
20
-80.3005
11
115.077
21
-80.301
0
LINE
8
BLACK
6
CONTINUOUS
10
115.077
20
-80.301
11
115.083
21
-80.3
0
LINE
8
BLACK
6
CONTINUOUS
10
115.083
20
-80.3
11
115.159
21
-80.3
0
LINE
8
BLACK
6
CONTINUOUS
10
115.159
20
-80.3
11
115.275
21
-80.2769
0
LINE
8
BLACK
6
CONTINUOUS
10
115.275
20
-80.2769
11
115.384
21
-80.2317
0
LINE
8
BLACK
6
CONTINUOUS
10
115.384
20
-80.2317
11
115.482
21
-80.166
0
LINE
8
BLACK
6
CONTINUOUS
10
115.482
20
-80.166
11
115.536
21
-80.1122
0
LINE
8
BLACK
6
CONTINUOUS
10
115.536
20
-80.1122
11
115.541
21
-80.109
0
LINE
8
BLACK
6
CONTINUOUS
10
115.541
20
-80.109
11
115.544
21
-80.1047
0
LINE
8
BLACK
6
CONTINUOUS
10
115.544
20
-80.1047
11
115.559
21
-80.0964
0
LINE
8
BLACK
6
CONTINUOUS
10
115.559
20
-80.0964
11
115.572
21
-80.0869
0
LINE
8
BLACK
6
CONTINUOUS
10
115.572
20
-80.0869
11
115.578
21
-80.0855
0
LINE
8
BLACK
6
CONTINUOUS
10
115.578
20
-80.0855
11
115.583
21
-80.0827
0
LINE
8
BLACK
6
CONTINUOUS
10
115.583
20
-80.0827
11
115.599
21
-80.0798
0
LINE
8
BLACK
6
CONTINUOUS
10
115.599
20
-80.0798
11
115.615
21
-80.0755
0
LINE
8
BLACK
6
CONTINUOUS
10
115.615
20
-80.0755
11
115.621
21
-80.076
0
LINE
8
BLACK
6
CONTINUOUS
10
115.621
20
-80.076
11
115.626
21
-80.075
0
LINE
8
BLACK
6
CONTINUOUS
10
115.626
20
-80.075
11
117.675
21
-80.075
0
LINE
8
BLACK
6
CONTINUOUS
10
117.675
20
-80.075
11
117.682
21
-80.0761
0
LINE
8
BLACK
6
CONTINUOUS
10
117.682
20
-80.0761
11
117.688
21
-80.0756
0
LINE
8
BLACK
6
CONTINUOUS
10
117.688
20
-80.0756
11
117.7
21
-80.0768
0
LINE
8
BLACK
6
CONTINUOUS
10
117.7
20
-80.0768
11
117.712
21
-80.0756
0
LINE
8
BLACK
6
CONTINUOUS
10
117.712
20
-80.0756
11
117.712
21
-80.0756
0
LINE
8
BLACK
6
CONTINUOUS
10
117.712
20
-80.0756
11
117.712
21
-80.0756
0
LINE
8
BLACK
6
CONTINUOUS
10
117.712
20
-80.0756
11
117.774
21
-80.0696
0
LINE
8
BLACK
6
CONTINUOUS
10
117.774
20
-80.0696
11
117.844
21
-80.0481
0
LINE
8
BLACK
6
CONTINUOUS
10
117.844
20
-80.0481
11
117.909
21
-80.0133
0
LINE
8
BLACK
6
CONTINUOUS
10
117.909
20
-80.0133
11
117.966
21
-79.9664
0
LINE
8
BLACK
6
CONTINUOUS
10
117.966
20
-79.9664
11
117.974
21
-79.957
0
LINE
8
BLACK
6
CONTINUOUS
10
117.974
20
-79.957
11
117.979
21
-79.9529
0
LINE
8
BLACK
6
CONTINUOUS
10
117.979
20
-79.9529
11
117.983
21
-79.9477
0
LINE
8
BLACK
6
CONTINUOUS
10
117.983
20
-79.9477
11
122.884
21
-75.0459
0
LINE
8
BLACK
6
CONTINUOUS
10
122.884
20
-75.0459
11
122.884
21
-75.0459
0
LINE
8
BLACK
6
CONTINUOUS
10
122.884
20
-75.0459
11
123.983
21
-73.9477
0
LINE
8
BLACK
6
CONTINUOUS
10
123.983
20
-73.9477
11
123.983
21
-73.9477
0
LINE
8
BLACK
6
CONTINUOUS
10
123.983
20
-73.9477
11
124.318
21
-73.6122
0
LINE
8
BLACK
6
CONTINUOUS
10
124.318
20
-73.6122
11
124.323
21
-73.609
0
LINE
8
BLACK
6
CONTINUOUS
10
124.323
20
-73.609
11
124.326
21
-73.6047
0
LINE
8
BLACK
6
CONTINUOUS
10
124.326
20
-73.6047
11
124.341
21
-73.5964
0
LINE
8
BLACK
6
CONTINUOUS
10
124.341
20
-73.5964
11
124.354
21
-73.5869
0
LINE
8
BLACK
6
CONTINUOUS
10
124.354
20
-73.5869
11
124.36
21
-73.5855
0
LINE
8
BLACK
6
CONTINUOUS
10
124.36
20
-73.5855
11
124.364
21
-73.5827
0
LINE
8
BLACK
6
CONTINUOUS
10
124.364
20
-73.5827
11
124.381
21
-73.5798
0
LINE
8
BLACK
6
CONTINUOUS
10
124.381
20
-73.5798
11
124.397
21
-73.5755
0
LINE
8
BLACK
6
CONTINUOUS
10
124.397
20
-73.5755
11
124.402
21
-73.576
0
LINE
8
BLACK
6
CONTINUOUS
10
124.402
20
-73.576
11
124.408
21
-73.575
0
LINE
8
BLACK
6
CONTINUOUS
10
124.408
20
-73.575
11
137.475
21
-73.575
0
LINE
8
BLACK
6
CONTINUOUS
10
137.475
20
-73.575
11
137.482
21
-73.5761
0
LINE
8
BLACK
6
CONTINUOUS
10
137.482
20
-73.5761
11
137.488
21
-73.5756
0
LINE
8
BLACK
6
CONTINUOUS
10
137.488
20
-73.5756
11
137.5
21
-73.5768
0
LINE
8
BLACK
6
CONTINUOUS
10
137.5
20
-73.5768
11
137.512
21
-73.5756
0
LINE
8
BLACK
6
CONTINUOUS
10
137.512
20
-73.5756
11
137.512
21
-73.5756
0
LINE
8
BLACK
6
CONTINUOUS
10
137.512
20
-73.5756
11
137.512
21
-73.5756
0
LINE
8
BLACK
6
CONTINUOUS
10
137.512
20
-73.5756
11
137.574
21
-73.5696
0
LINE
8
BLACK
6
CONTINUOUS
10
137.574
20
-73.5696
11
137.644
21
-73.5481
0
LINE
8
BLACK
6
CONTINUOUS
10
137.644
20
-73.5481
11
137.709
21
-73.5133
0
LINE
8
BLACK
6
CONTINUOUS
10
137.709
20
-73.5133
11
137.766
21
-73.4664
0
LINE
8
BLACK
6
CONTINUOUS
10
137.766
20
-73.4664
11
137.774
21
-73.457
0
LINE
8
BLACK
6
CONTINUOUS
10
137.774
20
-73.457
11
137.779
21
-73.4529
0
LINE
8
BLACK
6
CONTINUOUS
10
137.779
20
-73.4529
11
137.783
21
-73.4477
0
LINE
8
BLACK
6
CONTINUOUS
10
137.783
20
-73.4477
11
142.966
21
-68.264
0
LINE
8
BLACK
6
CONTINUOUS
10
142.966
20
-68.264
11
142.984
21
-68.2518
0
LINE
8
BLACK
6
CONTINUOUS
10
142.984
20
-68.2518
11
143.001
21
-68.2393
0
LINE
8
BLACK
6
CONTINUOUS
10
143.001
20
-68.2393
11
143.002
21
-68.2391
0
LINE
8
BLACK
6
CONTINUOUS
10
143.002
20
-68.2391
11
143.002
21
-68.2387
0
LINE
8
BLACK
6
CONTINUOUS
10
143.002
20
-68.2387
11
143.023
21
-68.2332
0
LINE
8
BLACK
6
CONTINUOUS
10
143.023
20
-68.2332
11
143.044
21
-68.2274
0
LINE
8
BLACK
6
CONTINUOUS
10
143.044
20
-68.2274
11
143.062
21
-68.2256
0
LINE
8
BLACK
6
CONTINUOUS
10
143.062
20
-68.2256
11
143.062
21
-68.2256
0
LINE
8
BLACK
6
CONTINUOUS
10
143.062
20
-68.2256
11
143.124
21
-68.2196
0
LINE
8
BLACK
6
CONTINUOUS
10
143.124
20
-68.2196
11
143.194
21
-68.1981
0
LINE
8
BLACK
6
CONTINUOUS
10
143.194
20
-68.1981
11
143.259
21
-68.1633
0
LINE
8
BLACK
6
CONTINUOUS
10
143.259
20
-68.1633
11
143.316
21
-68.1164
0
LINE
8
BLACK
6
CONTINUOUS
10
143.316
20
-68.1164
11
143.324
21
-68.107
0
LINE
8
BLACK
6
CONTINUOUS
10
143.324
20
-68.107
11
143.329
21
-68.1029
0
LINE
8
BLACK
6
CONTINUOUS
10
143.329
20
-68.1029
11
143.333
21
-68.0977
0
LINE
8
BLACK
6
CONTINUOUS
10
143.333
20
-68.0977
11
143.343
21
-68.0872
0
LINE
8
BLACK
6
CONTINUOUS
10
143.343
20
-68.0872
11
143.348
21
-68.084
0
LINE
8
BLACK
6
CONTINUOUS
10
143.348
20
-68.084
11
143.351
21
-68.0797
0
LINE
8
BLACK
6
CONTINUOUS
10
143.351
20
-68.0797
11
143.366
21
-68.0714
0
LINE
8
BLACK
6
CONTINUOUS
10
143.366
20
-68.0714
11
143.379
21
-68.0619
0
LINE
8
BLACK
6
CONTINUOUS
10
143.379
20
-68.0619
11
143.385
21
-68.0605
0
LINE
8
BLACK
6
CONTINUOUS
10
143.385
20
-68.0605
11
143.389
21
-68.0577
0
LINE
8
BLACK
6
CONTINUOUS
10
143.389
20
-68.0577
11
143.406
21
-68.0548
0
LINE
8
BLACK
6
CONTINUOUS
10
143.406
20
-68.0548
11
143.422
21
-68.0505
0
LINE
8
BLACK
6
CONTINUOUS
10
143.422
20
-68.0505
11
143.427
21
-68.051
0
LINE
8
BLACK
6
CONTINUOUS
10
143.427
20
-68.051
11
143.433
21
-68.05
0
LINE
8
BLACK
6
CONTINUOUS
10
143.433
20
-68.05
11
143.454
21
-68.05
0
LINE
8
BLACK
6
CONTINUOUS
10
143.454
20
-68.05
11
143.56
21
-68.0289
0
LINE
8
BLACK
6
CONTINUOUS
10
143.56
20
-68.0289
11
143.661
21
-67.9874
0
LINE
8
BLACK
6
CONTINUOUS
10
143.661
20
-67.9874
11
143.751
21
-67.9272
0
LINE
8
BLACK
6
CONTINUOUS
10
143.751
20
-67.9272
11
143.827
21
-67.8506
0
LINE
8
BLACK
6
CONTINUOUS
10
143.827
20
-67.8506
11
143.887
21
-67.7605
0
LINE
8
BLACK
6
CONTINUOUS
10
143.887
20
-67.7605
11
143.929
21
-67.6604
0
LINE
8
BLACK
6
CONTINUOUS
10
143.929
20
-67.6604
11
143.95
21
-67.5542
0
LINE
8
BLACK
6
CONTINUOUS
10
143.95
20
-67.5542
11
143.95
21
-67.4458
0
LINE
8
BLACK
6
CONTINUOUS
10
143.95
20
-67.4458
11
143.929
21
-67.3396
0
LINE
8
BLACK
6
CONTINUOUS
10
143.929
20
-67.3396
11
143.887
21
-67.2395
0
LINE
8
BLACK
6
CONTINUOUS
10
143.887
20
-67.2395
11
143.827
21
-67.1494
0
LINE
8
BLACK
6
CONTINUOUS
10
143.827
20
-67.1494
11
143.751
21
-67.0728
0
LINE
8
BLACK
6
CONTINUOUS
10
143.751
20
-67.0728
11
143.661
21
-67.0126
0
LINE
8
BLACK
6
CONTINUOUS
10
143.661
20
-67.0126
11
143.56
21
-66.9711
0
LINE
8
BLACK
6
CONTINUOUS
10
143.56
20
-66.9711
11
143.454
21
-66.95
0
LINE
8
BLACK
6
CONTINUOUS
10
143.454
20
-66.95
11
143.346
21
-66.95
0
LINE
8
BLACK
6
CONTINUOUS
10
143.346
20
-66.95
11
143.24
21
-66.9711
0
LINE
8
BLACK
6
CONTINUOUS
10
143.24
20
-66.9711
11
143.139
21
-67.0126
0
LINE
8
BLACK
6
CONTINUOUS
10
143.139
20
-67.0126
11
143.049
21
-67.0728
0
LINE
8
BLACK
6
CONTINUOUS
10
143.049
20
-67.0728
11
142.973
21
-67.1494
0
LINE
8
BLACK
6
CONTINUOUS
10
142.973
20
-67.1494
11
142.913
21
-67.2395
0
LINE
8
BLACK
6
CONTINUOUS
10
142.913
20
-67.2395
11
142.871
21
-67.3396
0
LINE
8
BLACK
6
CONTINUOUS
10
142.871
20
-67.3396
11
142.862
21
-67.3843
0
LINE
8
BLACK
6
CONTINUOUS
10
142.862
20
-67.3843
11
142.861
21
-67.3862
0
LINE
8
BLACK
6
CONTINUOUS
10
142.861
20
-67.3862
11
142.861
21
-67.3883
0
LINE
8
BLACK
6
CONTINUOUS
10
142.861
20
-67.3883
11
142.854
21
-67.4067
0
LINE
8
BLACK
6
CONTINUOUS
10
142.854
20
-67.4067
11
142.846
21
-67.4254
0
LINE
8
BLACK
6
CONTINUOUS
10
142.846
20
-67.4254
11
142.845
21
-67.4269
0
LINE
8
BLACK
6
CONTINUOUS
10
142.845
20
-67.4269
11
142.844
21
-67.4289
0
LINE
8
BLACK
6
CONTINUOUS
10
142.844
20
-67.4289
11
142.83
21
-67.4435
0
LINE
8
BLACK
6
CONTINUOUS
10
142.83
20
-67.4435
11
142.817
21
-67.4585
0
LINE
8
BLACK
6
CONTINUOUS
10
142.817
20
-67.4585
11
142.815
21
-67.4595
0
LINE
8
BLACK
6
CONTINUOUS
10
142.815
20
-67.4595
11
142.814
21
-67.4611
0
LINE
8
BLACK
6
CONTINUOUS
10
142.814
20
-67.4611
11
142.796
21
-67.4701
0
LINE
8
BLACK
6
CONTINUOUS
10
142.796
20
-67.4701
11
142.779
21
-67.4797
0
LINE
8
BLACK
6
CONTINUOUS
10
142.779
20
-67.4797
11
142.776
21
-67.4801
0
LINE
8
BLACK
6
CONTINUOUS
10
142.776
20
-67.4801
11
142.775
21
-67.481
0
LINE
8
BLACK
6
CONTINUOUS
10
142.775
20
-67.481
11
142.706
21
-67.5019
0
LINE
8
BLACK
6
CONTINUOUS
10
142.706
20
-67.5019
11
142.641
21
-67.5367
0
LINE
8
BLACK
6
CONTINUOUS
10
142.641
20
-67.5367
11
142.584
21
-67.5836
0
LINE
8
BLACK
6
CONTINUOUS
10
142.584
20
-67.5836
11
142.576
21
-67.593
0
LINE
8
BLACK
6
CONTINUOUS
10
142.576
20
-67.593
11
142.571
21
-67.5971
0
LINE
8
BLACK
6
CONTINUOUS
10
142.571
20
-67.5971
11
142.567
21
-67.6023
0
LINE
8
BLACK
6
CONTINUOUS
10
142.567
20
-67.6023
11
139.007
21
-71.1629
0
LINE
8
BLACK
6
CONTINUOUS
10
139.007
20
-71.1629
11
139.003
21
-71.1653
0
LINE
8
BLACK
6
CONTINUOUS
10
139.003
20
-71.1653
11
139.001
21
-71.1685
0
LINE
8
BLACK
6
CONTINUOUS
10
139.001
20
-71.1685
11
138.985
21
-71.1779
0
LINE
8
BLACK
6
CONTINUOUS
10
138.985
20
-71.1779
11
138.971
21
-71.1882
0
LINE
8
BLACK
6
CONTINUOUS
10
138.971
20
-71.1882
11
138.967
21
-71.1893
0
LINE
8
BLACK
6
CONTINUOUS
10
138.967
20
-71.1893
11
138.963
21
-71.1914
0
LINE
8
BLACK
6
CONTINUOUS
10
138.963
20
-71.1914
11
138.945
21
-71.1949
0
LINE
8
BLACK
6
CONTINUOUS
10
138.945
20
-71.1949
11
138.928
21
-71.1996
0
LINE
8
BLACK
6
CONTINUOUS
10
138.928
20
-71.1996
11
138.924
21
-71.1992
0
LINE
8
BLACK
6
CONTINUOUS
10
138.924
20
-71.1992
11
138.92
21
-71.2
0
LINE
8
BLACK
6
CONTINUOUS
10
138.92
20
-71.2
11
138.902
21
-71.1973
0
LINE
8
BLACK
6
CONTINUOUS
10
138.902
20
-71.1973
11
138.884
21
-71.1957
0
LINE
8
BLACK
6
CONTINUOUS
10
138.884
20
-71.1957
11
138.88
21
-71.194
0
LINE
8
BLACK
6
CONTINUOUS
10
138.88
20
-71.194
11
138.876
21
-71.1933
0
LINE
8
BLACK
6
CONTINUOUS
10
138.876
20
-71.1933
11
138.86
21
-71.1847
0
LINE
8
BLACK
6
CONTINUOUS
10
138.86
20
-71.1847
11
138.844
21
-71.1771
0
LINE
8
BLACK
6
CONTINUOUS
10
138.844
20
-71.1771
11
138.841
21
-71.1741
0
LINE
8
BLACK
6
CONTINUOUS
10
138.841
20
-71.1741
11
138.838
21
-71.1721
0
LINE
8
BLACK
6
CONTINUOUS
10
138.838
20
-71.1721
11
138.826
21
-71.1586
0
LINE
8
BLACK
6
CONTINUOUS
10
138.826
20
-71.1586
11
138.813
21
-71.1459
0
LINE
8
BLACK
6
CONTINUOUS
10
138.813
20
-71.1459
11
138.811
21
-71.1421
0
LINE
8
BLACK
6
CONTINUOUS
10
138.811
20
-71.1421
11
138.808
21
-71.1389
0
LINE
8
BLACK
6
CONTINUOUS
10
138.808
20
-71.1389
11
138.802
21
-71.1222
0
LINE
8
BLACK
6
CONTINUOUS
10
138.802
20
-71.1222
11
138.794
21
-71.1059
0
LINE
8
BLACK
6
CONTINUOUS
10
138.794
20
-71.1059
11
138.794
21
-71.1018
0
LINE
8
BLACK
6
CONTINUOUS
10
138.794
20
-71.1018
11
138.792
21
-71.0978
0
LINE
8
BLACK
6
CONTINUOUS
10
138.792
20
-71.0978
11
138.779
21
-71.0296
0
LINE
8
BLACK
6
CONTINUOUS
10
138.779
20
-71.0296
11
138.737
21
-70.9295
0
LINE
8
BLACK
6
CONTINUOUS
10
138.737
20
-70.9295
11
138.677
21
-70.8394
0
LINE
8
BLACK
6
CONTINUOUS
10
138.677
20
-70.8394
11
138.601
21
-70.7628
0
LINE
8
BLACK
6
CONTINUOUS
10
138.601
20
-70.7628
11
138.511
21
-70.7026
0
LINE
8
BLACK
6
CONTINUOUS
10
138.511
20
-70.7026
11
138.41
21
-70.6611
0
LINE
8
BLACK
6
CONTINUOUS
10
138.41
20
-70.6611
11
138.304
21
-70.64
0
LINE
8
BLACK
6
CONTINUOUS
10
138.304
20
-70.64
11
138.196
21
-70.64
0
LINE
8
BLACK
6
CONTINUOUS
10
138.196
20
-70.64
11
138.09
21
-70.6611
0
LINE
8
BLACK
6
CONTINUOUS
10
138.09
20
-70.6611
11
137.989
21
-70.7026
0
LINE
8
BLACK
6
CONTINUOUS
10
137.989
20
-70.7026
11
137.899
21
-70.7628
0
LINE
8
BLACK
6
CONTINUOUS
10
137.899
20
-70.7628
11
137.823
21
-70.8394
0
LINE
8
BLACK
6
CONTINUOUS
10
137.823
20
-70.8394
11
137.763
21
-70.9295
0
LINE
8
BLACK
6
CONTINUOUS
10
137.763
20
-70.9295
11
137.721
21
-71.0296
0
LINE
8
BLACK
6
CONTINUOUS
10
137.721
20
-71.0296
11
137.7
21
-71.1358
0
LINE
8
BLACK
6
CONTINUOUS
10
137.7
20
-71.1358
11
137.7
21
-71.2567
0
LINE
8
BLACK
6
CONTINUOUS
10
137.7
20
-71.2567
11
137.699
21
-71.2599
0
LINE
8
BLACK
6
CONTINUOUS
10
137.699
20
-71.2599
11
137.701
21
-71.2731
0
LINE
8
BLACK
6
CONTINUOUS
10
137.701
20
-71.2731
11
137.699
21
-71.2772
0
LINE
8
BLACK
6
CONTINUOUS
10
137.699
20
-71.2772
11
137.7
21
-71.2814
0
LINE
8
BLACK
6
CONTINUOUS
10
137.7
20
-71.2814
11
137.694
21
-71.2984
0
LINE
8
BLACK
6
CONTINUOUS
10
137.694
20
-71.2984
11
137.689
21
-71.3157
0
LINE
8
BLACK
6
CONTINUOUS
10
137.689
20
-71.3157
11
137.687
21
-71.3192
0
LINE
8
BLACK
6
CONTINUOUS
10
137.687
20
-71.3192
11
137.685
21
-71.3232
0
LINE
8
BLACK
6
CONTINUOUS
10
137.685
20
-71.3232
11
137.674
21
-71.3372
0
LINE
8
BLACK
6
CONTINUOUS
10
137.674
20
-71.3372
11
137.664
21
-71.3519
0
LINE
8
BLACK
6
CONTINUOUS
10
137.664
20
-71.3519
11
136.878
21
-72.1378
0
LINE
8
BLACK
6
CONTINUOUS
10
136.878
20
-72.1378
11
136.873
21
-72.141
0
LINE
8
BLACK
6
CONTINUOUS
10
136.873
20
-72.141
11
136.87
21
-72.1453
0
LINE
8
BLACK
6
CONTINUOUS
10
136.87
20
-72.1453
11
136.855
21
-72.1536
0
LINE
8
BLACK
6
CONTINUOUS
10
136.855
20
-72.1536
11
136.842
21
-72.1631
0
LINE
8
BLACK
6
CONTINUOUS
10
136.842
20
-72.1631
11
136.836
21
-72.1645
0
LINE
8
BLACK
6
CONTINUOUS
10
136.836
20
-72.1645
11
136.832
21
-72.1673
0
LINE
8
BLACK
6
CONTINUOUS
10
136.832
20
-72.1673
11
136.815
21
-72.1702
0
LINE
8
BLACK
6
CONTINUOUS
10
136.815
20
-72.1702
11
136.799
21
-72.1745
0
LINE
8
BLACK
6
CONTINUOUS
10
136.799
20
-72.1745
11
136.794
21
-72.174
0
LINE
8
BLACK
6
CONTINUOUS
10
136.794
20
-72.174
11
136.788
21
-72.175
0
LINE
8
BLACK
6
CONTINUOUS
10
136.788
20
-72.175
11
129.329
21
-72.175
0
LINE
8
BLACK
6
CONTINUOUS
10
129.329
20
-72.175
11
129.311
21
-72.1719
0
LINE
8
BLACK
6
CONTINUOUS
10
129.311
20
-72.1719
11
129.293
21
-72.1699
0
LINE
8
BLACK
6
CONTINUOUS
10
129.293
20
-72.1699
11
129.29
21
-72.1681
0
LINE
8
BLACK
6
CONTINUOUS
10
129.29
20
-72.1681
11
129.285
21
-72.1673
0
LINE
8
BLACK
6
CONTINUOUS
10
129.285
20
-72.1673
11
129.27
21
-72.1584
0
LINE
8
BLACK
6
CONTINUOUS
10
129.27
20
-72.1584
11
129.254
21
-72.1504
0
LINE
8
BLACK
6
CONTINUOUS
10
129.254
20
-72.1504
11
129.251
21
-72.1474
0
LINE
8
BLACK
6
CONTINUOUS
10
129.251
20
-72.1474
11
129.247
21
-72.1453
0
LINE
8
BLACK
6
CONTINUOUS
10
129.247
20
-72.1453
11
129.239
21
-72.1351
0
LINE
8
BLACK
6
CONTINUOUS
10
129.239
20
-72.1351
11
129.236
21
-72.1332
0
LINE
8
BLACK
6
CONTINUOUS
10
129.236
20
-72.1332
11
129.151
21
-72.0478
0
LINE
8
BLACK
6
CONTINUOUS
10
129.151
20
-72.0478
11
129.061
21
-71.9876
0
LINE
8
BLACK
6
CONTINUOUS
10
129.061
20
-71.9876
11
128.96
21
-71.9461
0
LINE
8
BLACK
6
CONTINUOUS
10
128.96
20
-71.9461
11
128.854
21
-71.925
0
LINE
8
BLACK
6
CONTINUOUS
10
128.854
20
-71.925
11
128.746
21
-71.925
0
LINE
8
BLACK
6
CONTINUOUS
10
128.746
20
-71.925
11
128.64
21
-71.9461
0
LINE
8
BLACK
6
CONTINUOUS
10
128.64
20
-71.9461
11
128.539
21
-71.9876
0
LINE
8
BLACK
6
CONTINUOUS
10
128.539
20
-71.9876
11
128.449
21
-72.0478
0
LINE
8
BLACK
6
CONTINUOUS
10
128.449
20
-72.0478
11
128.373
21
-72.1244
0
LINE
8
BLACK
6
CONTINUOUS
10
128.373
20
-72.1244
11
128.313
21
-72.2145
0
LINE
8
BLACK
6
CONTINUOUS
10
128.313
20
-72.2145
11
128.271
21
-72.3146
0
LINE
8
BLACK
6
CONTINUOUS
10
128.271
20
-72.3146
11
128.25
21
-72.4208
0
LINE
8
BLACK
6
CONTINUOUS
10
128.25
20
-72.4208
11
128.25
21
-72.5292
0
LINE
8
BLACK
6
CONTINUOUS
10
128.25
20
-72.5292
11
128.271
21
-72.6354
0
LINE
8
BLACK
6
CONTINUOUS
10
128.271
20
-72.6354
11
128.277
21
-72.6494
0
LINE
8
BLACK
6
CONTINUOUS
10
128.277
20
-72.6494
11
128.28
21
-72.6629
0
LINE
8
BLACK
6
CONTINUOUS
10
128.28
20
-72.6629
11
128.285
21
-72.6759
0
LINE
8
BLACK
6
CONTINUOUS
10
128.285
20
-72.6759
11
128.285
21
-72.6843
0
LINE
8
BLACK
6
CONTINUOUS
10
128.285
20
-72.6843
11
128.286
21
-72.6925
0
LINE
8
BLACK
6
CONTINUOUS
10
128.286
20
-72.6925
11
128.285
21
-72.7062
0
LINE
8
BLACK
6
CONTINUOUS
10
128.285
20
-72.7062
11
128.285
21
-72.7201
0
LINE
8
BLACK
6
CONTINUOUS
10
128.285
20
-72.7201
11
128.282
21
-72.7279
0
LINE
8
BLACK
6
CONTINUOUS
10
128.282
20
-72.7279
11
128.281
21
-72.7362
0
LINE
8
BLACK
6
CONTINUOUS
10
128.281
20
-72.7362
11
128.274
21
-72.7485
0
LINE
8
BLACK
6
CONTINUOUS
10
128.274
20
-72.7485
11
128.27
21
-72.7615
0
LINE
8
BLACK
6
CONTINUOUS
10
128.27
20
-72.7615
11
128.264
21
-72.7679
0
LINE
8
BLACK
6
CONTINUOUS
10
128.264
20
-72.7679
11
128.26
21
-72.7753
0
LINE
8
BLACK
6
CONTINUOUS
10
128.26
20
-72.7753
11
128.25
21
-72.7847
0
LINE
8
BLACK
6
CONTINUOUS
10
128.25
20
-72.7847
11
128.241
21
-72.7953
0
LINE
8
BLACK
6
CONTINUOUS
10
128.241
20
-72.7953
11
128.234
21
-72.7995
0
LINE
8
BLACK
6
CONTINUOUS
10
128.234
20
-72.7995
11
128.228
21
-72.8051
0
LINE
8
BLACK
6
CONTINUOUS
10
128.228
20
-72.8051
11
128.215
21
-72.8104
0
LINE
8
BLACK
6
CONTINUOUS
10
128.215
20
-72.8104
11
128.203
21
-72.8173
0
LINE
8
BLACK
6
CONTINUOUS
10
128.203
20
-72.8173
11
128.195
21
-72.8188
0
LINE
8
BLACK
6
CONTINUOUS
10
128.195
20
-72.8188
11
128.187
21
-72.822
0
LINE
8
BLACK
6
CONTINUOUS
10
128.187
20
-72.822
11
128.173
21
-72.8226
0
LINE
8
BLACK
6
CONTINUOUS
10
128.173
20
-72.8226
11
128.16
21
-72.825
0
LINE
8
BLACK
6
CONTINUOUS
10
128.16
20
-72.825
11
124.225
21
-72.825
0
LINE
8
BLACK
6
CONTINUOUS
10
124.225
20
-72.825
11
124.218
21
-72.8239
0
LINE
8
BLACK
6
CONTINUOUS
10
124.218
20
-72.8239
11
124.212
21
-72.8244
0
LINE
8
BLACK
6
CONTINUOUS
10
124.212
20
-72.8244
11
124.2
21
-72.8232
0
LINE
8
BLACK
6
CONTINUOUS
10
124.2
20
-72.8232
11
124.188
21
-72.8244
0
LINE
8
BLACK
6
CONTINUOUS
10
124.188
20
-72.8244
11
124.188
21
-72.8244
0
LINE
8
BLACK
6
CONTINUOUS
10
124.188
20
-72.8244
11
124.188
21
-72.8244
0
LINE
8
BLACK
6
CONTINUOUS
10
124.188
20
-72.8244
11
124.126
21
-72.8304
0
LINE
8
BLACK
6
CONTINUOUS
10
124.126
20
-72.8304
11
124.056
21
-72.8519
0
LINE
8
BLACK
6
CONTINUOUS
10
124.056
20
-72.8519
11
123.991
21
-72.8867
0
LINE
8
BLACK
6
CONTINUOUS
10
123.991
20
-72.8867
11
123.934
21
-72.9336
0
LINE
8
BLACK
6
CONTINUOUS
10
123.934
20
-72.9336
11
123.926
21
-72.943
0
LINE
8
BLACK
6
CONTINUOUS
10
123.926
20
-72.943
11
123.921
21
-72.9471
0
LINE
8
BLACK
6
CONTINUOUS
10
123.921
20
-72.9471
11
123.917
21
-72.9523
0
LINE
8
BLACK
6
CONTINUOUS
10
123.917
20
-72.9523
11
117.582
21
-79.2878
0
LINE
8
BLACK
6
CONTINUOUS
10
117.582
20
-79.2878
11
117.577
21
-79.291
0
LINE
8
BLACK
6
CONTINUOUS
10
117.577
20
-79.291
11
117.574
21
-79.2953
0
LINE
8
BLACK
6
CONTINUOUS
10
117.574
20
-79.2953
11
117.559
21
-79.3036
0
LINE
8
BLACK
6
CONTINUOUS
10
117.559
20
-79.3036
11
117.546
21
-79.3131
0
LINE
8
BLACK
6
CONTINUOUS
10
117.546
20
-79.3131
11
117.54
21
-79.3145
0
LINE
8
BLACK
6
CONTINUOUS
10
117.54
20
-79.3145
11
117.536
21
-79.3173
0
LINE
8
BLACK
6
CONTINUOUS
10
117.536
20
-79.3173
11
117.519
21
-79.3202
0
LINE
8
BLACK
6
CONTINUOUS
10
117.519
20
-79.3202
11
117.503
21
-79.3245
0
LINE
8
BLACK
6
CONTINUOUS
10
117.503
20
-79.3245
11
117.498
21
-79.324
0
LINE
8
BLACK
6
CONTINUOUS
10
117.498
20
-79.324
11
117.492
21
-79.325
0
LINE
8
BLACK
6
CONTINUOUS
10
117.492
20
-79.325
11
115.626
21
-79.325
0
LINE
8
BLACK
6
CONTINUOUS
10
115.626
20
-79.325
11
115.621
21
-79.324
0
LINE
8
BLACK
6
CONTINUOUS
10
115.621
20
-79.324
11
115.615
21
-79.3245
0
LINE
8
BLACK
6
CONTINUOUS
10
115.615
20
-79.3245
11
115.599
21
-79.3202
0
LINE
8
BLACK
6
CONTINUOUS
10
115.599
20
-79.3202
11
115.583
21
-79.3173
0
LINE
8
BLACK
6
CONTINUOUS
10
115.583
20
-79.3173
11
115.578
21
-79.3145
0
LINE
8
BLACK
6
CONTINUOUS
10
115.578
20
-79.3145
11
115.572
21
-79.3131
0
LINE
8
BLACK
6
CONTINUOUS
10
115.572
20
-79.3131
11
115.559
21
-79.3036
0
LINE
8
BLACK
6
CONTINUOUS
10
115.559
20
-79.3036
11
115.544
21
-79.2953
0
LINE
8
BLACK
6
CONTINUOUS
10
115.544
20
-79.2953
11
115.541
21
-79.291
0
LINE
8
BLACK
6
CONTINUOUS
10
115.541
20
-79.291
11
115.536
21
-79.2878
0
LINE
8
BLACK
6
CONTINUOUS
10
115.536
20
-79.2878
11
115.482
21
-79.2339
0
LINE
8
BLACK
6
CONTINUOUS
10
115.482
20
-79.2339
11
115.481
21
-79.2333
0
LINE
8
BLACK
6
CONTINUOUS
10
115.481
20
-79.2333
11
115.468
21
-79.2208
0
LINE
8
BLACK
6
CONTINUOUS
10
115.468
20
-79.2208
11
115.455
21
-79.2093
0
LINE
8
BLACK
6
CONTINUOUS
10
115.455
20
-79.2093
11
115.453
21
-79.2057
0
LINE
8
BLACK
6
CONTINUOUS
10
115.453
20
-79.2057
11
115.45
21
-79.2028
0
LINE
8
BLACK
6
CONTINUOUS
10
115.45
20
-79.2028
11
115.442
21
-79.1866
0
LINE
8
BLACK
6
CONTINUOUS
10
115.442
20
-79.1866
11
115.433
21
-79.1711
0
LINE
8
BLACK
6
CONTINUOUS
10
115.433
20
-79.1711
11
115.432
21
-79.167
0
LINE
8
BLACK
6
CONTINUOUS
10
115.432
20
-79.167
11
115.43
21
-79.1632
0
LINE
8
BLACK
6
CONTINUOUS
10
115.43
20
-79.1632
11
115.428
21
-79.1453
0
LINE
8
BLACK
6
CONTINUOUS
10
115.428
20
-79.1453
11
115.425
21
-79.1277
0
LINE
8
BLACK
6
CONTINUOUS
10
115.425
20
-79.1277
11
115.425
21
-77.9222
0
LINE
8
BLACK
6
CONTINUOUS
10
115.425
20
-77.9222
11
115.426
21
-77.916
0
LINE
8
BLACK
6
CONTINUOUS
10
115.426
20
-77.916
11
115.426
21
-77.9098
0
LINE
8
BLACK
6
CONTINUOUS
10
115.426
20
-77.9098
11
115.427
21
-77.9
0
LINE
8
BLACK
6
CONTINUOUS
10
115.427
20
-77.9
11
115.42
21
-77.8363
0
LINE
8
BLACK
6
CONTINUOUS
10
115.42
20
-77.8363
11
115.402
21
-77.775
0
LINE
8
BLACK
6
CONTINUOUS
10
115.402
20
-77.775
11
115.372
21
-77.7186
0
LINE
8
BLACK
6
CONTINUOUS
10
115.372
20
-77.7186
11
115.331
21
-77.6691
0
LINE
8
BLACK
6
CONTINUOUS
10
115.331
20
-77.6691
11
115.323
21
-77.6629
0
LINE
8
BLACK
6
CONTINUOUS
10
115.323
20
-77.6629
11
115.319
21
-77.6581
0
LINE
8
BLACK
6
CONTINUOUS
10
115.319
20
-77.6581
11
115.314
21
-77.6545
0
LINE
8
BLACK
6
CONTINUOUS
10
115.314
20
-77.6545
11
114.477
21
-76.8174
0
LINE
8
BLACK
6
CONTINUOUS
10
114.477
20
-76.8174
11
114.467
21
-76.8027
0
LINE
8
BLACK
6
CONTINUOUS
10
114.467
20
-76.8027
11
114.455
21
-76.7887
0
LINE
8
BLACK
6
CONTINUOUS
10
114.455
20
-76.7887
11
114.454
21
-76.7847
0
LINE
8
BLACK
6
CONTINUOUS
10
114.454
20
-76.7847
11
114.452
21
-76.7813
0
LINE
8
BLACK
6
CONTINUOUS
10
114.452
20
-76.7813
11
114.447
21
-76.7639
0
LINE
8
BLACK
6
CONTINUOUS
10
114.447
20
-76.7639
11
114.441
21
-76.7469
0
LINE
8
BLACK
6
CONTINUOUS
10
114.441
20
-76.7469
11
114.441
21
-76.7427
0
LINE
8
BLACK
6
CONTINUOUS
10
114.441
20
-76.7427
11
114.44
21
-76.7387
0
LINE
8
BLACK
6
CONTINUOUS
10
114.44
20
-76.7387
11
114.442
21
-76.7208
0
LINE
8
BLACK
6
CONTINUOUS
10
114.442
20
-76.7208
11
114.442
21
-76.7028
0
LINE
8
BLACK
6
CONTINUOUS
10
114.442
20
-76.7028
11
114.45
21
-76.664
0
LINE
8
BLACK
6
CONTINUOUS
10
114.45
20
-76.664
11
114.45
21
-76.536
0
LINE
8
BLACK
6
CONTINUOUS
10
114.45
20
-76.536
11
114.425
21
-76.4104
0
LINE
8
BLACK
6
CONTINUOUS
10
114.425
20
-76.4104
11
114.376
21
-76.2921
0
LINE
8
BLACK
6
CONTINUOUS
10
114.376
20
-76.2921
11
114.305
21
-76.1856
0
LINE
8
BLACK
6
CONTINUOUS
10
114.305
20
-76.1856
11
114.214
21
-76.0951
0
LINE
8
BLACK
6
CONTINUOUS
10
114.214
20
-76.0951
11
114.108
21
-76.024
0
LINE
8
BLACK
6
CONTINUOUS
10
114.108
20
-76.024
11
113.99
21
-75.975
0
LINE
8
BLACK
6
CONTINUOUS
10
113.99
20
-75.975
11
113.864
21
-75.95
0
LINE
8
BLACK
6
CONTINUOUS
10
113.864
20
-75.95
11
113.736
21
-75.95
0
LINE
8
BLACK
6
CONTINUOUS
10
113.736
20
-75.95
11
113.61
21
-75.975
0
LINE
8
BLACK
6
CONTINUOUS
10
113.61
20
-75.975
11
113.492
21
-76.024
0
LINE
8
BLACK
6
CONTINUOUS
10
113.492
20
-76.024
11
113.386
21
-76.0951
0
LINE
8
BLACK
6
CONTINUOUS
10
113.386
20
-76.0951
11
113.295
21
-76.1857
0
LINE
8
BLACK
6
CONTINUOUS
10
113.295
20
-76.1857
11
113.224
21
-76.2921
0
LINE
8
BLACK
6
CONTINUOUS
10
113.224
20
-76.2921
11
113.175
21
-76.4104
0
LINE
8
BLACK
6
CONTINUOUS
10
113.175
20
-76.4104
11
113.15
21
-76.536
0
LINE
8
BLACK
6
CONTINUOUS
10
113.15
20
-76.536
11
113.15
21
-76.664
0
LINE
8
BLACK
6
CONTINUOUS
10
113.15
20
-76.664
11
113.175
21
-76.7896
0
LINE
8
BLACK
6
CONTINUOUS
10
113.175
20
-76.7896
11
113.224
21
-76.9079
0
LINE
8
BLACK
6
CONTINUOUS
10
113.224
20
-76.9079
11
113.295
21
-77.0143
0
LINE
8
BLACK
6
CONTINUOUS
10
113.295
20
-77.0143
11
113.386
21
-77.1049
0
LINE
8
BLACK
6
CONTINUOUS
10
113.386
20
-77.1049
11
113.492
21
-77.176
0
LINE
8
BLACK
6
CONTINUOUS
10
113.492
20
-77.176
11
113.61
21
-77.225
0
LINE
8
BLACK
6
CONTINUOUS
10
113.61
20
-77.225
11
113.736
21
-77.25
0
LINE
8
BLACK
6
CONTINUOUS
10
113.736
20
-77.25
11
113.864
21
-77.25
0
LINE
8
BLACK
6
CONTINUOUS
10
113.864
20
-77.25
11
113.903
21
-77.2423
0
LINE
8
BLACK
6
CONTINUOUS
10
113.903
20
-77.2423
11
113.921
21
-77.2419
0
LINE
8
BLACK
6
CONTINUOUS
10
113.921
20
-77.2419
11
113.939
21
-77.2403
0
LINE
8
BLACK
6
CONTINUOUS
10
113.939
20
-77.2403
11
113.943
21
-77.2414
0
LINE
8
BLACK
6
CONTINUOUS
10
113.943
20
-77.2414
11
113.947
21
-77.2413
0
LINE
8
BLACK
6
CONTINUOUS
10
113.947
20
-77.2413
11
113.964
21
-77.2471
0
LINE
8
BLACK
6
CONTINUOUS
10
113.964
20
-77.2471
11
113.981
21
-77.2517
0
LINE
8
BLACK
6
CONTINUOUS
10
113.981
20
-77.2517
11
113.985
21
-77.2541
0
LINE
8
BLACK
6
CONTINUOUS
10
113.985
20
-77.2541
11
113.989
21
-77.2555
0
LINE
8
BLACK
6
CONTINUOUS
10
113.989
20
-77.2555
11
114.003
21
-77.2667
0
LINE
8
BLACK
6
CONTINUOUS
10
114.003
20
-77.2667
11
114.017
21
-77.277
0
LINE
8
BLACK
6
CONTINUOUS
10
114.017
20
-77.277
11
114.738
21
-77.9974
0
LINE
8
BLACK
6
CONTINUOUS
10
114.738
20
-77.9974
11
114.741
21
-78.002
0
LINE
8
BLACK
6
CONTINUOUS
10
114.741
20
-78.002
11
114.745
21
-78.0056
0
LINE
8
BLACK
6
CONTINUOUS
10
114.745
20
-78.0056
11
114.754
21
-78.02
0
LINE
8
BLACK
6
CONTINUOUS
10
114.754
20
-78.02
11
114.763
21
-78.0336
0
LINE
8
BLACK
6
CONTINUOUS
10
114.763
20
-78.0336
11
114.765
21
-78.0389
0
LINE
8
BLACK
6
CONTINUOUS
10
114.765
20
-78.0389
11
114.767
21
-78.0438
0
LINE
8
BLACK
6
CONTINUOUS
10
114.767
20
-78.0438
11
114.77
21
-78.0601
0
LINE
8
BLACK
6
CONTINUOUS
10
114.77
20
-78.0601
11
114.775
21
-78.0762
0
LINE
8
BLACK
6
CONTINUOUS
10
114.775
20
-78.0762
11
114.774
21
-78.0817
0
LINE
8
BLACK
6
CONTINUOUS
10
114.774
20
-78.0817
11
114.775
21
-78.0872
0
LINE
8
BLACK
6
CONTINUOUS
10
114.775
20
-78.0872
11
114.775
21
-79.1277
0
LINE
8
BLACK
6
CONTINUOUS
10
114.775
20
-79.1277
11
114.772
21
-79.1453
0
LINE
8
BLACK
6
CONTINUOUS
10
114.772
20
-79.1453
11
114.77
21
-79.1632
0
LINE
8
BLACK
6
CONTINUOUS
10
114.77
20
-79.1632
11
114.768
21
-79.167
0
LINE
8
BLACK
6
CONTINUOUS
10
114.768
20
-79.167
11
114.767
21
-79.1711
0
LINE
8
BLACK
6
CONTINUOUS
10
114.767
20
-79.1711
11
114.758
21
-79.1867
0
LINE
8
BLACK
6
CONTINUOUS
10
114.758
20
-79.1867
11
114.75
21
-79.2028
0
LINE
8
BLACK
6
CONTINUOUS
10
114.75
20
-79.2028
11
114.747
21
-79.2057
0
LINE
8
BLACK
6
CONTINUOUS
10
114.747
20
-79.2057
11
114.745
21
-79.2093
0
LINE
8
BLACK
6
CONTINUOUS
10
114.745
20
-79.2093
11
114.732
21
-79.2208
0
LINE
8
BLACK
6
CONTINUOUS
10
114.732
20
-79.2208
11
114.719
21
-79.2333
0
LINE
8
BLACK
6
CONTINUOUS
10
114.719
20
-79.2333
11
114.718
21
-79.234
0
LINE
8
BLACK
6
CONTINUOUS
10
114.718
20
-79.234
11
114.634
21
-79.3175
0
LINE
8
BLACK
6
CONTINUOUS
10
114.634
20
-79.3175
11
114.568
21
-79.4158
0
LINE
8
BLACK
6
CONTINUOUS
10
114.568
20
-79.4158
11
114.523
21
-79.525
0
LINE
8
BLACK
6
CONTINUOUS
10
114.523
20
-79.525
11
114.5
21
-79.6409
0
LINE
8
BLACK
6
CONTINUOUS
10
114.5
20
-79.6409
11
114.5
21
-79.7171
0
LINE
8
BLACK
6
CONTINUOUS
10
114.5
20
-79.7171
11
114.499
21
-79.7226
0
LINE
8
BLACK
6
CONTINUOUS
10
114.499
20
-79.7226
11
114.5
21
-79.7281
0
LINE
8
BLACK
6
CONTINUOUS
10
114.5
20
-79.7281
11
114.495
21
-79.7442
0
LINE
8
BLACK
6
CONTINUOUS
10
114.495
20
-79.7442
11
114.492
21
-79.7605
0
LINE
8
BLACK
6
CONTINUOUS
10
114.492
20
-79.7605
11
114.49
21
-79.7653
0
LINE
8
BLACK
6
CONTINUOUS
10
114.49
20
-79.7653
11
114.488
21
-79.7707
0
LINE
8
BLACK
6
CONTINUOUS
10
114.488
20
-79.7707
11
114.479
21
-79.7843
0
LINE
8
BLACK
6
CONTINUOUS
10
114.479
20
-79.7843
11
114.47
21
-79.7987
0
LINE
8
BLACK
6
CONTINUOUS
10
114.47
20
-79.7987
11
114.466
21
-79.8023
0
LINE
8
BLACK
6
CONTINUOUS
10
114.466
20
-79.8023
11
114.463
21
-79.8069
0
LINE
8
BLACK
6
CONTINUOUS
10
114.463
20
-79.8069
11
110.252
21
-84.0174
0
LINE
8
BLACK
6
CONTINUOUS
10
110.252
20
-84.0174
11
110.247
21
-84.021
0
LINE
8
BLACK
6
CONTINUOUS
10
110.247
20
-84.021
11
110.243
21
-84.0258
0
LINE
8
BLACK
6
CONTINUOUS
10
110.243
20
-84.0258
11
110.234
21
-84.0336
0
LINE
8
BLACK
6
CONTINUOUS
10
110.234
20
-84.0336
11
110.187
21
-84.0907
0
LINE
8
BLACK
6
CONTINUOUS
10
110.187
20
-84.0907
11
110.152
21
-84.1558
0
LINE
8
BLACK
6
CONTINUOUS
10
110.152
20
-84.1558
11
110.13
21
-84.2265
0
LINE
8
BLACK
6
CONTINUOUS
10
110.13
20
-84.2265
11
110.124
21
-84.2878
0
LINE
8
BLACK
6
CONTINUOUS
10
110.124
20
-84.2878
11
110.124
21
-84.2878
0
LINE
8
BLACK
6
CONTINUOUS
10
110.124
20
-84.2878
11
110.124
21
-84.2878
0
LINE
8
BLACK
6
CONTINUOUS
10
110.124
20
-84.2878
11
110.123
21
-84.3
0
LINE
8
BLACK
6
CONTINUOUS
10
110.123
20
-84.3
11
110.124
21
-84.3122
0
LINE
8
BLACK
6
CONTINUOUS
10
110.124
20
-84.3122
11
110.124
21
-84.3185
0
LINE
8
BLACK
6
CONTINUOUS
10
110.124
20
-84.3185
11
110.125
21
-84.3246
0
LINE
8
BLACK
6
CONTINUOUS
10
110.125
20
-84.3246
11
110.125
21
-86.9804
0
LINE
8
BLACK
6
CONTINUOUS
10
110.125
20
-86.9804
11
110.125
21
-86.9804
0
LINE
8
BLACK
6
CONTINUOUS
10
110.125
20
-86.9804
11
110.125
21
-87.0446
0
LINE
8
BLACK
6
CONTINUOUS
10
110.125
20
-87.0446
11
110.124
21
-87.0501
0
LINE
8
BLACK
6
CONTINUOUS
10
118.933
20
-81.97
11
118.826
21
-81.9912
0
LINE
8
BLACK
6
CONTINUOUS
10
118.826
20
-81.9912
11
118.726
21
-82.0326
0
LINE
8
BLACK
6
CONTINUOUS
10
118.726
20
-82.0326
11
118.636
21
-82.0928
0
LINE
8
BLACK
6
CONTINUOUS
10
118.636
20
-82.0928
11
118.56
21
-82.1694
0
LINE
8
BLACK
6
CONTINUOUS
10
118.56
20
-82.1694
11
118.499
21
-82.2595
0
LINE
8
BLACK
6
CONTINUOUS
10
118.499
20
-82.2595
11
118.458
21
-82.3596
0
LINE
8
BLACK
6
CONTINUOUS
10
118.458
20
-82.3596
11
118.437
21
-82.4659
0
LINE
8
BLACK
6
CONTINUOUS
10
118.437
20
-82.4659
11
118.437
21
-82.5867
0
LINE
8
BLACK
6
CONTINUOUS
10
118.437
20
-82.5867
11
118.436
21
-82.5899
0
LINE
8
BLACK
6
CONTINUOUS
10
118.436
20
-82.5899
11
118.437
21
-82.6031
0
LINE
8
BLACK
6
CONTINUOUS
10
118.437
20
-82.6031
11
118.436
21
-82.6072
0
LINE
8
BLACK
6
CONTINUOUS
10
118.436
20
-82.6072
11
118.436
21
-82.6114
0
LINE
8
BLACK
6
CONTINUOUS
10
118.436
20
-82.6114
11
118.431
21
-82.6284
0
LINE
8
BLACK
6
CONTINUOUS
10
118.431
20
-82.6284
11
118.426
21
-82.6458
0
LINE
8
BLACK
6
CONTINUOUS
10
118.426
20
-82.6458
11
118.424
21
-82.6492
0
LINE
8
BLACK
6
CONTINUOUS
10
118.424
20
-82.6492
11
118.422
21
-82.6532
0
LINE
8
BLACK
6
CONTINUOUS
10
118.422
20
-82.6532
11
118.411
21
-82.6672
0
LINE
8
BLACK
6
CONTINUOUS
10
118.411
20
-82.6672
11
118.401
21
-82.6819
0
LINE
8
BLACK
6
CONTINUOUS
10
118.401
20
-82.6819
11
117.918
21
-83.1642
0
LINE
8
BLACK
6
CONTINUOUS
10
117.918
20
-83.1642
11
117.913
21
-83.1678
0
LINE
8
BLACK
6
CONTINUOUS
10
117.913
20
-83.1678
11
117.909
21
-83.1726
0
LINE
8
BLACK
6
CONTINUOUS
10
117.909
20
-83.1726
11
117.903
21
-83.178
0
LINE
8
BLACK
6
CONTINUOUS
10
117.903
20
-83.178
11
117.897
21
-83.1847
0
LINE
8
BLACK
6
CONTINUOUS
10
117.897
20
-83.1847
11
117.897
21
-83.1847
0
LINE
8
BLACK
6
CONTINUOUS
10
117.897
20
-83.1847
11
117.897
21
-83.1847
0
LINE
8
BLACK
6
CONTINUOUS
10
117.897
20
-83.1847
11
117.865
21
-83.2237
0
LINE
8
BLACK
6
CONTINUOUS
10
117.865
20
-83.2237
11
117.861
21
-83.2309
0
LINE
8
BLACK
6
CONTINUOUS
10
117.861
20
-83.2309
11
117.861
21
-83.2309
0
LINE
8
BLACK
6
CONTINUOUS
10
117.861
20
-83.2309
11
117.837
21
-83.2758
0
LINE
8
BLACK
6
CONTINUOUS
10
117.837
20
-83.2758
11
117.82
21
-83.3324
0
LINE
8
BLACK
6
CONTINUOUS
10
117.82
20
-83.3324
11
117.815
21
-83.3827
0
LINE
8
BLACK
6
CONTINUOUS
10
117.815
20
-83.3827
11
117.815
21
-83.3827
0
LINE
8
BLACK
6
CONTINUOUS
10
117.815
20
-83.3827
11
117.815
21
-83.3827
0
LINE
8
BLACK
6
CONTINUOUS
10
117.815
20
-83.3827
11
117.814
21
-83.3912
0
LINE
8
BLACK
6
CONTINUOUS
10
117.814
20
-83.3912
11
117.815
21
-83.3997
0
LINE
8
BLACK
6
CONTINUOUS
10
117.815
20
-83.3997
11
117.815
21
-83.406
0
LINE
8
BLACK
6
CONTINUOUS
10
117.815
20
-83.406
11
117.816
21
-83.4122
0
LINE
8
BLACK
6
CONTINUOUS
10
117.816
20
-83.4122
11
117.816
21
-84.473
0
LINE
8
BLACK
6
CONTINUOUS
10
117.816
20
-84.473
11
117.814
21
-84.4839
0
LINE
8
BLACK
6
CONTINUOUS
10
117.814
20
-84.4839
11
117.814
21
-84.4951
0
LINE
8
BLACK
6
CONTINUOUS
10
117.814
20
-84.4951
11
117.81
21
-84.5055
0
LINE
8
BLACK
6
CONTINUOUS
10
117.81
20
-84.5055
11
117.808
21
-84.5164
0
LINE
8
BLACK
6
CONTINUOUS
10
117.808
20
-84.5164
11
117.802
21
-84.5261
0
LINE
8
BLACK
6
CONTINUOUS
10
117.802
20
-84.5261
11
117.799
21
-84.5365
0
LINE
8
BLACK
6
CONTINUOUS
10
117.799
20
-84.5365
11
117.792
21
-84.545
0
LINE
8
BLACK
6
CONTINUOUS
10
117.792
20
-84.545
11
117.786
21
-84.5546
0
LINE
8
BLACK
6
CONTINUOUS
10
117.786
20
-84.5546
11
117.777
21
-84.5618
0
LINE
8
BLACK
6
CONTINUOUS
10
117.777
20
-84.5618
11
117.77
21
-84.5703
0
LINE
8
BLACK
6
CONTINUOUS
10
117.77
20
-84.5703
11
117.761
21
-84.5758
0
LINE
8
BLACK
6
CONTINUOUS
10
117.761
20
-84.5758
11
117.752
21
-84.583
0
LINE
8
BLACK
6
CONTINUOUS
10
117.752
20
-84.583
11
117.742
21
-84.5868
0
LINE
8
BLACK
6
CONTINUOUS
10
117.742
20
-84.5868
11
117.732
21
-84.5923
0
LINE
8
BLACK
6
CONTINUOUS
10
117.732
20
-84.5923
11
117.721
21
-84.5943
0
LINE
8
BLACK
6
CONTINUOUS
10
117.721
20
-84.5943
11
117.711
21
-84.5981
0
LINE
8
BLACK
6
CONTINUOUS
10
117.711
20
-84.5981
11
117.7
21
-84.5981
0
LINE
8
BLACK
6
CONTINUOUS
10
117.7
20
-84.5981
11
117.689
21
-84.6
0
LINE
8
BLACK
6
CONTINUOUS
10
117.689
20
-84.6
11
116.554
21
-84.6
0
LINE
8
BLACK
6
CONTINUOUS
10
116.554
20
-84.6
11
116.536
21
-84.5969
0
LINE
8
BLACK
6
CONTINUOUS
10
116.536
20
-84.5969
11
116.518
21
-84.5949
0
LINE
8
BLACK
6
CONTINUOUS
10
116.518
20
-84.5949
11
116.515
21
-84.5931
0
LINE
8
BLACK
6
CONTINUOUS
10
116.515
20
-84.5931
11
116.51
21
-84.5923
0
LINE
8
BLACK
6
CONTINUOUS
10
116.51
20
-84.5923
11
116.495
21
-84.5834
0
LINE
8
BLACK
6
CONTINUOUS
10
116.495
20
-84.5834
11
116.479
21
-84.5754
0
LINE
8
BLACK
6
CONTINUOUS
10
116.479
20
-84.5754
11
116.476
21
-84.5724
0
LINE
8
BLACK
6
CONTINUOUS
10
116.476
20
-84.5724
11
116.472
21
-84.5703
0
LINE
8
BLACK
6
CONTINUOUS
10
116.472
20
-84.5703
11
116.464
21
-84.5601
0
LINE
8
BLACK
6
CONTINUOUS
10
116.464
20
-84.5601
11
116.461
21
-84.5582
0
LINE
8
BLACK
6
CONTINUOUS
10
116.461
20
-84.5582
11
116.376
21
-84.4728
0
LINE
8
BLACK
6
CONTINUOUS
10
116.376
20
-84.4728
11
116.286
21
-84.4126
0
LINE
8
BLACK
6
CONTINUOUS
10
116.286
20
-84.4126
11
116.185
21
-84.3711
0
LINE
8
BLACK
6
CONTINUOUS
10
116.185
20
-84.3711
11
116.079
21
-84.35
0
LINE
8
BLACK
6
CONTINUOUS
10
116.079
20
-84.35
11
115.971
21
-84.35
0
LINE
8
BLACK
6
CONTINUOUS
10
115.971
20
-84.35
11
115.865
21
-84.3711
0
LINE
8
BLACK
6
CONTINUOUS
10
115.865
20
-84.3711
11
115.764
21
-84.4126
0
LINE
8
BLACK
6
CONTINUOUS
10
115.764
20
-84.4126
11
115.674
21
-84.4728
0
LINE
8
BLACK
6
CONTINUOUS
10
115.674
20
-84.4728
11
115.598
21
-84.5494
0
LINE
8
BLACK
6
CONTINUOUS
10
115.598
20
-84.5494
11
115.538
21
-84.6395
0
LINE
8
BLACK
6
CONTINUOUS
10
115.538
20
-84.6395
11
115.496
21
-84.7396
0
LINE
8
BLACK
6
CONTINUOUS
10
115.496
20
-84.7396
11
115.475
21
-84.8458
0
LINE
8
BLACK
6
CONTINUOUS
10
115.475
20
-84.8458
11
115.475
21
-84.9542
0
LINE
8
BLACK
6
CONTINUOUS
10
115.475
20
-84.9542
11
115.496
21
-85.0604
0
LINE
8
BLACK
6
CONTINUOUS
10
115.496
20
-85.0604
11
115.538
21
-85.1605
0
LINE
8
BLACK
6
CONTINUOUS
10
115.538
20
-85.1605
11
115.598
21
-85.2506
0
LINE
8
BLACK
6
CONTINUOUS
10
115.598
20
-85.2506
11
115.674
21
-85.3272
0
LINE
8
BLACK
6
CONTINUOUS
10
115.674
20
-85.3272
11
115.764
21
-85.3874
0
LINE
8
BLACK
6
CONTINUOUS
10
115.764
20
-85.3874
11
115.865
21
-85.4289
0
LINE
8
BLACK
6
CONTINUOUS
10
115.865
20
-85.4289
11
115.971
21
-85.45
0
LINE
8
BLACK
6
CONTINUOUS
10
115.971
20
-85.45
11
116.079
21
-85.45
0
LINE
8
BLACK
6
CONTINUOUS
10
116.079
20
-85.45
11
116.185
21
-85.4289
0
LINE
8
BLACK
6
CONTINUOUS
10
116.185
20
-85.4289
11
116.286
21
-85.3874
0
LINE
8
BLACK
6
CONTINUOUS
10
116.286
20
-85.3874
11
116.376
21
-85.3272
0
LINE
8
BLACK
6
CONTINUOUS
10
116.376
20
-85.3272
11
116.461
21
-85.2418
0
LINE
8
BLACK
6
CONTINUOUS
10
116.461
20
-85.2418
11
116.464
21
-85.2399
0
LINE
8
BLACK
6
CONTINUOUS
10
116.464
20
-85.2399
11
116.472
21
-85.2297
0
LINE
8
BLACK
6
CONTINUOUS
10
116.472
20
-85.2297
11
116.476
21
-85.2276
0
LINE
8
BLACK
6
CONTINUOUS
10
116.476
20
-85.2276
11
116.479
21
-85.2246
0
LINE
8
BLACK
6
CONTINUOUS
10
116.479
20
-85.2246
11
116.495
21
-85.2166
0
LINE
8
BLACK
6
CONTINUOUS
10
116.495
20
-85.2166
11
116.51
21
-85.2077
0
LINE
8
BLACK
6
CONTINUOUS
10
116.51
20
-85.2077
11
116.515
21
-85.2069
0
LINE
8
BLACK
6
CONTINUOUS
10
116.515
20
-85.2069
11
116.518
21
-85.2051
0
LINE
8
BLACK
6
CONTINUOUS
10
116.518
20
-85.2051
11
116.536
21
-85.2031
0
LINE
8
BLACK
6
CONTINUOUS
10
116.536
20
-85.2031
11
116.554
21
-85.2
0
LINE
8
BLACK
6
CONTINUOUS
10
116.554
20
-85.2
11
117.689
21
-85.2
0
LINE
8
BLACK
6
CONTINUOUS
10
117.689
20
-85.2
11
117.7
21
-85.2019
0
LINE
8
BLACK
6
CONTINUOUS
10
117.7
20
-85.2019
11
117.711
21
-85.2019
0
LINE
8
BLACK
6
CONTINUOUS
10
117.711
20
-85.2019
11
117.721
21
-85.2057
0
LINE
8
BLACK
6
CONTINUOUS
10
117.721
20
-85.2057
11
117.732
21
-85.2077
0
LINE
8
BLACK
6
CONTINUOUS
10
117.732
20
-85.2077
11
117.742
21
-85.2132
0
LINE
8
BLACK
6
CONTINUOUS
10
117.742
20
-85.2132
11
117.752
21
-85.217
0
LINE
8
BLACK
6
CONTINUOUS
10
117.752
20
-85.217
11
117.761
21
-85.2242
0
LINE
8
BLACK
6
CONTINUOUS
10
117.761
20
-85.2242
11
117.77
21
-85.2297
0
LINE
8
BLACK
6
CONTINUOUS
10
117.77
20
-85.2297
11
117.777
21
-85.2382
0
LINE
8
BLACK
6
CONTINUOUS
10
117.777
20
-85.2382
11
117.786
21
-85.2454
0
LINE
8
BLACK
6
CONTINUOUS
10
117.786
20
-85.2454
11
117.792
21
-85.255
0
LINE
8
BLACK
6
CONTINUOUS
10
117.792
20
-85.255
11
117.799
21
-85.2635
0
LINE
8
BLACK
6
CONTINUOUS
10
117.799
20
-85.2635
11
117.802
21
-85.2739
0
LINE
8
BLACK
6
CONTINUOUS
10
117.802
20
-85.2739
11
117.808
21
-85.2836
0
LINE
8
BLACK
6
CONTINUOUS
10
117.808
20
-85.2836
11
117.81
21
-85.2945
0
LINE
8
BLACK
6
CONTINUOUS
10
117.81
20
-85.2945
11
117.814
21
-85.3049
0
LINE
8
BLACK
6
CONTINUOUS
10
117.814
20
-85.3049
11
117.814
21
-85.3161
0
LINE
8
BLACK
6
CONTINUOUS
10
117.814
20
-85.3161
11
117.816
21
-85.327
0
LINE
8
BLACK
6
CONTINUOUS
10
117.816
20
-85.327
11
117.816
21
-86.6674
0
LINE
8
BLACK
6
CONTINUOUS
10
117.816
20
-86.6674
11
117.813
21
-86.6851
0
LINE
8
BLACK
6
CONTINUOUS
10
117.813
20
-86.6851
11
117.811
21
-86.7029
0
LINE
8
BLACK
6
CONTINUOUS
10
117.811
20
-86.7029
11
117.809
21
-86.7067
0
LINE
8
BLACK
6
CONTINUOUS
10
117.809
20
-86.7067
11
117.808
21
-86.7108
0
LINE
8
BLACK
6
CONTINUOUS
10
117.808
20
-86.7108
11
117.799
21
-86.7264
0
LINE
8
BLACK
6
CONTINUOUS
10
117.799
20
-86.7264
11
117.791
21
-86.7425
0
LINE
8
BLACK
6
CONTINUOUS
10
117.791
20
-86.7425
11
117.788
21
-86.7454
0
LINE
8
BLACK
6
CONTINUOUS
10
117.788
20
-86.7454
11
117.786
21
-86.749
0
LINE
8
BLACK
6
CONTINUOUS
10
117.786
20
-86.749
11
117.776
21
-86.7576
0
LINE
8
BLACK
6
CONTINUOUS
10
117.776
20
-86.7576
11
117.774
21
-86.7603
0
LINE
8
BLACK
6
CONTINUOUS
10
117.774
20
-86.7603
11
117.688
21
-86.8457
0
LINE
8
BLACK
6
CONTINUOUS
10
117.688
20
-86.8457
11
117.628
21
-86.9358
0
LINE
8
BLACK
6
CONTINUOUS
10
117.628
20
-86.9358
11
117.587
21
-87.0359
0
LINE
8
BLACK
6
CONTINUOUS
10
117.587
20
-87.0359
11
117.566
21
-87.1422
0
LINE
8
BLACK
6
CONTINUOUS
10
117.566
20
-87.1422
11
117.566
21
-87.2505
0
LINE
8
BLACK
6
CONTINUOUS
10
117.566
20
-87.2505
11
117.587
21
-87.3568
0
LINE
8
BLACK
6
CONTINUOUS
10
117.587
20
-87.3568
11
117.628
21
-87.4568
0
LINE
8
BLACK
6
CONTINUOUS
10
117.628
20
-87.4568
11
117.688
21
-87.5469
0
LINE
8
BLACK
6
CONTINUOUS
10
117.688
20
-87.5469
11
117.765
21
-87.6235
0
LINE
8
BLACK
6
CONTINUOUS
10
117.765
20
-87.6235
11
117.855
21
-87.6837
0
LINE
8
BLACK
6
CONTINUOUS
10
117.855
20
-87.6837
11
117.955
21
-87.7252
0
LINE
8
BLACK
6
CONTINUOUS
10
117.955
20
-87.7252
11
118.062
21
-87.7463
0
LINE
8
BLACK
6
CONTINUOUS
10
118.062
20
-87.7463
11
118.17
21
-87.7463
0
LINE
8
BLACK
6
CONTINUOUS
10
118.17
20
-87.7463
11
118.276
21
-87.7252
0
LINE
8
BLACK
6
CONTINUOUS
10
118.276
20
-87.7252
11
118.376
21
-87.6837
0
LINE
8
BLACK
6
CONTINUOUS
10
118.376
20
-87.6837
11
118.466
21
-87.6235
0
LINE
8
BLACK
6
CONTINUOUS
10
118.466
20
-87.6235
11
118.543
21
-87.5469
0
LINE
8
BLACK
6
CONTINUOUS
10
118.543
20
-87.5469
11
118.603
21
-87.4568
0
LINE
8
BLACK
6
CONTINUOUS
10
118.603
20
-87.4568
11
118.645
21
-87.3568
0
LINE
8
BLACK
6
CONTINUOUS
10
118.645
20
-87.3568
11
118.666
21
-87.2505
0
LINE
8
BLACK
6
CONTINUOUS
10
118.666
20
-87.2505
11
118.666
21
-87.1422
0
LINE
8
BLACK
6
CONTINUOUS
10
118.666
20
-87.1422
11
118.645
21
-87.0359
0
LINE
8
BLACK
6
CONTINUOUS
10
118.645
20
-87.0359
11
118.603
21
-86.9358
0
LINE
8
BLACK
6
CONTINUOUS
10
118.603
20
-86.9358
11
118.543
21
-86.8457
0
LINE
8
BLACK
6
CONTINUOUS
10
118.543
20
-86.8457
11
118.457
21
-86.7603
0
LINE
8
BLACK
6
CONTINUOUS
10
118.457
20
-86.7603
11
118.456
21
-86.7576
0
LINE
8
BLACK
6
CONTINUOUS
10
118.456
20
-86.7576
11
118.445
21
-86.749
0
LINE
8
BLACK
6
CONTINUOUS
10
118.445
20
-86.749
11
118.443
21
-86.7454
0
LINE
8
BLACK
6
CONTINUOUS
10
118.443
20
-86.7454
11
118.44
21
-86.7425
0
LINE
8
BLACK
6
CONTINUOUS
10
118.44
20
-86.7425
11
118.432
21
-86.7264
0
LINE
8
BLACK
6
CONTINUOUS
10
118.432
20
-86.7264
11
118.423
21
-86.7108
0
LINE
8
BLACK
6
CONTINUOUS
10
118.423
20
-86.7108
11
118.423
21
-86.7067
0
LINE
8
BLACK
6
CONTINUOUS
10
118.423
20
-86.7067
11
118.421
21
-86.703
0
LINE
8
BLACK
6
CONTINUOUS
10
118.421
20
-86.703
11
118.419
21
-86.6851
0
LINE
8
BLACK
6
CONTINUOUS
10
118.419
20
-86.6851
11
118.416
21
-86.6674
0
LINE
8
BLACK
6
CONTINUOUS
10
118.416
20
-86.6674
11
118.416
21
-84.921
0
LINE
8
BLACK
6
CONTINUOUS
10
118.416
20
-84.921
11
118.417
21
-84.9148
0
LINE
8
BLACK
6
CONTINUOUS
10
118.417
20
-84.9148
11
118.416
21
-84.9085
0
LINE
8
BLACK
6
CONTINUOUS
10
118.416
20
-84.9085
11
118.417
21
-84.9
0
LINE
8
BLACK
6
CONTINUOUS
10
118.417
20
-84.9
11
118.416
21
-84.8915
0
LINE
8
BLACK
6
CONTINUOUS
10
118.416
20
-84.8915
11
118.417
21
-84.8852
0
LINE
8
BLACK
6
CONTINUOUS
10
118.417
20
-84.8852
11
118.416
21
-84.879
0
LINE
8
BLACK
6
CONTINUOUS
10
118.416
20
-84.879
11
118.416
21
-83.5681
0
LINE
8
BLACK
6
CONTINUOUS
10
118.416
20
-83.5681
11
118.417
21
-83.5626
0
LINE
8
BLACK
6
CONTINUOUS
10
118.417
20
-83.5626
11
118.416
21
-83.557
0
LINE
8
BLACK
6
CONTINUOUS
10
118.416
20
-83.557
11
118.42
21
-83.541
0
LINE
8
BLACK
6
CONTINUOUS
10
118.42
20
-83.541
11
118.423
21
-83.5246
0
LINE
8
BLACK
6
CONTINUOUS
10
118.423
20
-83.5246
11
118.426
21
-83.5198
0
LINE
8
BLACK
6
CONTINUOUS
10
118.426
20
-83.5198
11
118.428
21
-83.5144
0
LINE
8
BLACK
6
CONTINUOUS
10
118.428
20
-83.5144
11
118.437
21
-83.5008
0
LINE
8
BLACK
6
CONTINUOUS
10
118.437
20
-83.5008
11
118.445
21
-83.4864
0
LINE
8
BLACK
6
CONTINUOUS
10
118.445
20
-83.4864
11
118.45
21
-83.4828
0
LINE
8
BLACK
6
CONTINUOUS
10
118.45
20
-83.4828
11
118.453
21
-83.4783
0
LINE
8
BLACK
6
CONTINUOUS
10
118.453
20
-83.4783
11
118.825
21
-83.1061
0
LINE
8
BLACK
6
CONTINUOUS
10
118.825
20
-83.1061
11
118.84
21
-83.0958
0
LINE
8
BLACK
6
CONTINUOUS
10
118.84
20
-83.0958
11
118.854
21
-83.0846
0
LINE
8
BLACK
6
CONTINUOUS
10
118.854
20
-83.0846
11
118.858
21
-83.0833
0
LINE
8
BLACK
6
CONTINUOUS
10
118.858
20
-83.0833
11
118.861
21
-83.0808
0
LINE
8
BLACK
6
CONTINUOUS
10
118.861
20
-83.0808
11
118.878
21
-83.0762
0
LINE
8
BLACK
6
CONTINUOUS
10
118.878
20
-83.0762
11
118.896
21
-83.0704
0
LINE
8
BLACK
6
CONTINUOUS
10
118.896
20
-83.0704
11
118.9
21
-83.0705
0
LINE
8
BLACK
6
CONTINUOUS
10
118.9
20
-83.0705
11
118.904
21
-83.0694
0
LINE
8
BLACK
6
CONTINUOUS
10
118.904
20
-83.0694
11
118.917
21
-83.0706
0
LINE
8
BLACK
6
CONTINUOUS
10
118.917
20
-83.0706
11
118.92
21
-83.07
0
LINE
8
BLACK
6
CONTINUOUS
10
118.92
20
-83.07
11
119.041
21
-83.07
0
LINE
8
BLACK
6
CONTINUOUS
10
119.041
20
-83.07
11
119.147
21
-83.0489
0
LINE
8
BLACK
6
CONTINUOUS
10
119.147
20
-83.0489
11
119.247
21
-83.0074
0
LINE
8
BLACK
6
CONTINUOUS
10
119.247
20
-83.0074
11
119.337
21
-82.9472
0
LINE
8
BLACK
6
CONTINUOUS
10
119.337
20
-82.9472
11
119.414
21
-82.8706
0
LINE
8
BLACK
6
CONTINUOUS
10
119.414
20
-82.8706
11
119.428
21
-82.8497
0
LINE
8
BLACK
6
CONTINUOUS
10
119.428
20
-82.8497
11
119.44
21
-82.8377
0
LINE
8
BLACK
6
CONTINUOUS
10
119.44
20
-82.8377
11
119.45
21
-82.8248
0
LINE
8
BLACK
6
CONTINUOUS
10
119.45
20
-82.8248
11
119.455
21
-82.8219
0
LINE
8
BLACK
6
CONTINUOUS
10
119.455
20
-82.8219
11
119.459
21
-82.8179
0
LINE
8
BLACK
6
CONTINUOUS
10
119.459
20
-82.8179
11
119.473
21
-82.8105
0
LINE
8
BLACK
6
CONTINUOUS
10
119.473
20
-82.8105
11
119.488
21
-82.8019
0
LINE
8
BLACK
6
CONTINUOUS
10
119.488
20
-82.8019
11
119.493
21
-82.8008
0
LINE
8
BLACK
6
CONTINUOUS
10
119.493
20
-82.8008
11
119.498
21
-82.7984
0
LINE
8
BLACK
6
CONTINUOUS
10
119.498
20
-82.7984
11
119.515
21
-82.7965
0
LINE
8
BLACK
6
CONTINUOUS
10
119.515
20
-82.7965
11
119.531
21
-82.7933
0
LINE
8
BLACK
6
CONTINUOUS
10
119.531
20
-82.7933
11
119.536
21
-82.7942
0
LINE
8
BLACK
6
CONTINUOUS
10
119.536
20
-82.7942
11
119.542
21
-82.7936
0
LINE
8
BLACK
6
CONTINUOUS
10
119.542
20
-82.7936
11
119.558
21
-82.7975
0
LINE
8
BLACK
6
CONTINUOUS
10
119.558
20
-82.7975
11
119.574
21
-82.8
0
LINE
8
BLACK
6
CONTINUOUS
10
119.574
20
-82.8
11
119.579
21
-82.8027
0
LINE
8
BLACK
6
CONTINUOUS
10
119.579
20
-82.8027
11
119.585
21
-82.804
0
LINE
8
BLACK
6
CONTINUOUS
10
119.585
20
-82.804
11
119.599
21
-82.8133
0
LINE
8
BLACK
6
CONTINUOUS
10
119.599
20
-82.8133
11
119.613
21
-82.8212
0
LINE
8
BLACK
6
CONTINUOUS
10
119.613
20
-82.8212
11
119.617
21
-82.8254
0
LINE
8
BLACK
6
CONTINUOUS
10
119.617
20
-82.8254
11
119.621
21
-82.8285
0
LINE
8
BLACK
6
CONTINUOUS
10
119.621
20
-82.8285
11
119.631
21
-82.8419
0
LINE
8
BLACK
6
CONTINUOUS
10
119.631
20
-82.8419
11
119.642
21
-82.8544
0
LINE
8
BLACK
6
CONTINUOUS
10
119.642
20
-82.8544
11
119.644
21
-82.8596
0
LINE
8
BLACK
6
CONTINUOUS
10
119.644
20
-82.8596
11
119.648
21
-82.8641
0
LINE
8
BLACK
6
CONTINUOUS
10
119.648
20
-82.8641
11
119.652
21
-82.88
0
LINE
8
BLACK
6
CONTINUOUS
10
119.652
20
-82.88
11
119.658
21
-82.8955
0
LINE
8
BLACK
6
CONTINUOUS
10
119.658
20
-82.8955
11
119.671
21
-82.9604
0
LINE
8
BLACK
6
CONTINUOUS
10
119.671
20
-82.9604
11
119.713
21
-83.0605
0
LINE
8
BLACK
6
CONTINUOUS
10
119.713
20
-83.0605
11
119.773
21
-83.1506
0
LINE
8
BLACK
6
CONTINUOUS
10
119.773
20
-83.1506
11
119.849
21
-83.2272
0
LINE
8
BLACK
6
CONTINUOUS
10
119.849
20
-83.2272
11
119.939
21
-83.2874
0
LINE
8
BLACK
6
CONTINUOUS
10
119.939
20
-83.2874
11
120.04
21
-83.3289
0
LINE
8
BLACK
6
CONTINUOUS
10
120.04
20
-83.3289
11
120.146
21
-83.35
0
LINE
8
BLACK
6
CONTINUOUS
10
120.146
20
-83.35
11
120.254
21
-83.35
0
LINE
8
BLACK
6
CONTINUOUS
10
120.254
20
-83.35
11
120.28
21
-83.3448
0
LINE
8
BLACK
6
CONTINUOUS
10
120.28
20
-83.3448
11
120.298
21
-83.3444
0
LINE
8
BLACK
6
CONTINUOUS
10
120.298
20
-83.3444
11
120.316
21
-83.3428
0
LINE
8
BLACK
6
CONTINUOUS
10
120.316
20
-83.3428
11
120.32
21
-83.3439
0
LINE
8
BLACK
6
CONTINUOUS
10
120.32
20
-83.3439
11
120.324
21
-83.3438
0
LINE
8
BLACK
6
CONTINUOUS
10
120.324
20
-83.3438
11
120.341
21
-83.3496
0
LINE
8
BLACK
6
CONTINUOUS
10
120.341
20
-83.3496
11
120.359
21
-83.3543
0
LINE
8
BLACK
6
CONTINUOUS
10
120.359
20
-83.3543
11
120.362
21
-83.3567
0
LINE
8
BLACK
6
CONTINUOUS
10
120.362
20
-83.3567
11
120.366
21
-83.358
0
LINE
8
BLACK
6
CONTINUOUS
10
120.366
20
-83.358
11
120.38
21
-83.3693
0
LINE
8
BLACK
6
CONTINUOUS
10
120.38
20
-83.3693
11
120.395
21
-83.3796
0
LINE
8
BLACK
6
CONTINUOUS
10
120.395
20
-83.3796
11
121.788
21
-84.7724
0
LINE
8
BLACK
6
CONTINUOUS
10
121.788
20
-84.7724
11
121.791
21
-84.777
0
LINE
8
BLACK
6
CONTINUOUS
10
121.791
20
-84.777
11
121.795
21
-84.7806
0
LINE
8
BLACK
6
CONTINUOUS
10
121.795
20
-84.7806
11
121.804
21
-84.795
0
LINE
8
BLACK
6
CONTINUOUS
10
121.804
20
-84.795
11
121.813
21
-84.8086
0
LINE
8
BLACK
6
CONTINUOUS
10
121.813
20
-84.8086
11
121.815
21
-84.8139
0
LINE
8
BLACK
6
CONTINUOUS
10
121.815
20
-84.8139
11
121.817
21
-84.8188
0
LINE
8
BLACK
6
CONTINUOUS
10
121.817
20
-84.8188
11
121.82
21
-84.8351
0
LINE
8
BLACK
6
CONTINUOUS
10
121.82
20
-84.8351
11
121.825
21
-84.8512
0
LINE
8
BLACK
6
CONTINUOUS
10
121.825
20
-84.8512
11
121.824
21
-84.8567
0
LINE
8
BLACK
6
CONTINUOUS
10
121.824
20
-84.8567
11
121.825
21
-84.8622
0
LINE
8
BLACK
6
CONTINUOUS
10
121.825
20
-84.8622
11
121.825
21
-84.9542
0
LINE
8
BLACK
6
CONTINUOUS
10
121.825
20
-84.9542
11
121.846
21
-85.0604
0
LINE
8
BLACK
6
CONTINUOUS
10
121.846
20
-85.0604
11
121.888
21
-85.1605
0
LINE
8
BLACK
6
CONTINUOUS
10
121.888
20
-85.1605
11
121.948
21
-85.2506
0
LINE
8
BLACK
6
CONTINUOUS
10
121.948
20
-85.2506
11
122.024
21
-85.3272
0
LINE
8
BLACK
6
CONTINUOUS
10
122.024
20
-85.3272
11
122.114
21
-85.3874
0
LINE
8
BLACK
6
CONTINUOUS
10
122.114
20
-85.3874
11
122.215
21
-85.4289
0
LINE
8
BLACK
6
CONTINUOUS
10
122.215
20
-85.4289
11
122.321
21
-85.45
0
LINE
8
BLACK
6
CONTINUOUS
10
122.321
20
-85.45
11
122.429
21
-85.45
0
LINE
8
BLACK
6
CONTINUOUS
10
122.429
20
-85.45
11
122.535
21
-85.4289
0
LINE
8
BLACK
6
CONTINUOUS
10
122.535
20
-85.4289
11
122.636
21
-85.3874
0
LINE
8
BLACK
6
CONTINUOUS
10
122.636
20
-85.3874
11
122.726
21
-85.3272
0
LINE
8
BLACK
6
CONTINUOUS
10
122.726
20
-85.3272
11
122.802
21
-85.2506
0
LINE
8
BLACK
6
CONTINUOUS
10
122.802
20
-85.2506
11
122.862
21
-85.1605
0
LINE
8
BLACK
6
CONTINUOUS
10
122.862
20
-85.1605
11
122.904
21
-85.0604
0
LINE
8
BLACK
6
CONTINUOUS
10
122.904
20
-85.0604
11
122.925
21
-84.9542
0
LINE
8
BLACK
6
CONTINUOUS
10
122.925
20
-84.9542
11
122.925
21
-84.8458
0
LINE
8
BLACK
6
CONTINUOUS
10
122.925
20
-84.8458
11
122.904
21
-84.7396
0
LINE
8
BLACK
6
CONTINUOUS
10
122.904
20
-84.7396
11
122.862
21
-84.6395
0
LINE
8
BLACK
6
CONTINUOUS
10
122.862
20
-84.6395
11
122.802
21
-84.5494
0
LINE
8
BLACK
6
CONTINUOUS
10
122.802
20
-84.5494
11
122.726
21
-84.4728
0
LINE
8
BLACK
6
CONTINUOUS
10
122.726
20
-84.4728
11
122.636
21
-84.4126
0
LINE
8
BLACK
6
CONTINUOUS
10
122.636
20
-84.4126
11
122.535
21
-84.3711
0
LINE
8
BLACK
6
CONTINUOUS
10
122.535
20
-84.3711
11
122.429
21
-84.35
0
LINE
8
BLACK
6
CONTINUOUS
10
122.429
20
-84.35
11
122.337
21
-84.35
0
LINE
8
BLACK
6
CONTINUOUS
10
122.337
20
-84.35
11
122.332
21
-84.349
0
LINE
8
BLACK
6
CONTINUOUS
10
122.332
20
-84.349
11
122.326
21
-84.3495
0
LINE
8
BLACK
6
CONTINUOUS
10
122.326
20
-84.3495
11
122.31
21
-84.3452
0
LINE
8
BLACK
6
CONTINUOUS
10
122.31
20
-84.3452
11
122.294
21
-84.3423
0
LINE
8
BLACK
6
CONTINUOUS
10
122.294
20
-84.3423
11
122.289
21
-84.3395
0
LINE
8
BLACK
6
CONTINUOUS
10
122.289
20
-84.3395
11
122.284
21
-84.3381
0
LINE
8
BLACK
6
CONTINUOUS
10
122.284
20
-84.3381
11
122.27
21
-84.3286
0
LINE
8
BLACK
6
CONTINUOUS
10
122.27
20
-84.3286
11
122.256
21
-84.3203
0
LINE
8
BLACK
6
CONTINUOUS
10
122.256
20
-84.3203
11
122.252
21
-84.316
0
LINE
8
BLACK
6
CONTINUOUS
10
122.252
20
-84.316
11
122.247
21
-84.3128
0
LINE
8
BLACK
6
CONTINUOUS
10
122.247
20
-84.3128
11
120.787
21
-82.8526
0
LINE
8
BLACK
6
CONTINUOUS
10
120.787
20
-82.8526
11
120.784
21
-82.848
0
LINE
8
BLACK
6
CONTINUOUS
10
120.784
20
-82.848
11
120.78
21
-82.8444
0
LINE
8
BLACK
6
CONTINUOUS
10
120.78
20
-82.8444
11
120.771
21
-82.83
0
LINE
8
BLACK
6
CONTINUOUS
10
120.771
20
-82.83
11
120.762
21
-82.8164
0
LINE
8
BLACK
6
CONTINUOUS
10
120.762
20
-82.8164
11
120.76
21
-82.8111
0
LINE
8
BLACK
6
CONTINUOUS
10
120.76
20
-82.8111
11
120.758
21
-82.8062
0
LINE
8
BLACK
6
CONTINUOUS
10
120.758
20
-82.8062
11
120.755
21
-82.7899
0
LINE
8
BLACK
6
CONTINUOUS
10
120.755
20
-82.7899
11
120.75
21
-82.7738
0
LINE
8
BLACK
6
CONTINUOUS
10
120.75
20
-82.7738
11
120.751
21
-82.7683
0
LINE
8
BLACK
6
CONTINUOUS
10
120.751
20
-82.7683
11
120.75
21
-82.7628
0
LINE
8
BLACK
6
CONTINUOUS
10
120.75
20
-82.7628
11
120.75
21
-82.7458
0
LINE
8
BLACK
6
CONTINUOUS
10
120.75
20
-82.7458
11
120.729
21
-82.6396
0
LINE
8
BLACK
6
CONTINUOUS
10
120.729
20
-82.6396
11
120.687
21
-82.5395
0
LINE
8
BLACK
6
CONTINUOUS
10
120.687
20
-82.5395
11
120.627
21
-82.4494
0
LINE
8
BLACK
6
CONTINUOUS
10
120.627
20
-82.4494
11
120.551
21
-82.3728
0
LINE
8
BLACK
6
CONTINUOUS
10
120.551
20
-82.3728
11
120.461
21
-82.3126
0
LINE
8
BLACK
6
CONTINUOUS
10
120.461
20
-82.3126
11
120.36
21
-82.2711
0
LINE
8
BLACK
6
CONTINUOUS
10
120.36
20
-82.2711
11
120.254
21
-82.25
0
LINE
8
BLACK
6
CONTINUOUS
10
120.254
20
-82.25
11
120.146
21
-82.25
0
LINE
8
BLACK
6
CONTINUOUS
10
120.146
20
-82.25
11
120.04
21
-82.2711
0
LINE
8
BLACK
6
CONTINUOUS
10
120.04
20
-82.2711
11
119.939
21
-82.3126
0
LINE
8
BLACK
6
CONTINUOUS
10
119.939
20
-82.3126
11
119.849
21
-82.3728
0
LINE
8
BLACK
6
CONTINUOUS
10
119.849
20
-82.3728
11
119.773
21
-82.4494
0
LINE
8
BLACK
6
CONTINUOUS
10
119.773
20
-82.4494
11
119.759
21
-82.4703
0
LINE
8
BLACK
6
CONTINUOUS
10
119.759
20
-82.4703
11
119.747
21
-82.4823
0
LINE
8
BLACK
6
CONTINUOUS
10
119.747
20
-82.4823
11
119.737
21
-82.4952
0
LINE
8
BLACK
6
CONTINUOUS
10
119.737
20
-82.4952
11
119.732
21
-82.4981
0
LINE
8
BLACK
6
CONTINUOUS
10
119.732
20
-82.4981
11
119.728
21
-82.5022
0
LINE
8
BLACK
6
CONTINUOUS
10
119.728
20
-82.5022
11
119.713
21
-82.5095
0
LINE
8
BLACK
6
CONTINUOUS
10
119.713
20
-82.5095
11
119.699
21
-82.5181
0
LINE
8
BLACK
6
CONTINUOUS
10
119.699
20
-82.5181
11
119.694
21
-82.5192
0
LINE
8
BLACK
6
CONTINUOUS
10
119.694
20
-82.5192
11
119.689
21
-82.5217
0
LINE
8
BLACK
6
CONTINUOUS
10
119.689
20
-82.5217
11
119.672
21
-82.5235
0
LINE
8
BLACK
6
CONTINUOUS
10
119.672
20
-82.5235
11
119.656
21
-82.5267
0
LINE
8
BLACK
6
CONTINUOUS
10
119.656
20
-82.5267
11
119.65
21
-82.5259
0
LINE
8
BLACK
6
CONTINUOUS
10
119.65
20
-82.5259
11
119.645
21
-82.5265
0
LINE
8
BLACK
6
CONTINUOUS
10
119.645
20
-82.5265
11
119.629
21
-82.5225
0
LINE
8
BLACK
6
CONTINUOUS
10
119.629
20
-82.5225
11
119.612
21
-82.52
0
LINE
8
BLACK
6
CONTINUOUS
10
119.612
20
-82.52
11
119.608
21
-82.5173
0
LINE
8
BLACK
6
CONTINUOUS
10
119.608
20
-82.5173
11
119.602
21
-82.516
0
LINE
8
BLACK
6
CONTINUOUS
10
119.602
20
-82.516
11
119.588
21
-82.5068
0
LINE
8
BLACK
6
CONTINUOUS
10
119.588
20
-82.5068
11
119.574
21
-82.4988
0
LINE
8
BLACK
6
CONTINUOUS
10
119.574
20
-82.4988
11
119.57
21
-82.4946
0
LINE
8
BLACK
6
CONTINUOUS
10
119.57
20
-82.4946
11
119.565
21
-82.4915
0
LINE
8
BLACK
6
CONTINUOUS
10
119.565
20
-82.4915
11
119.556
21
-82.4781
0
LINE
8
BLACK
6
CONTINUOUS
10
119.556
20
-82.4781
11
119.545
21
-82.4656
0
LINE
8
BLACK
6
CONTINUOUS
10
119.545
20
-82.4656
11
119.543
21
-82.4604
0
LINE
8
BLACK
6
CONTINUOUS
10
119.543
20
-82.4604
11
119.539
21
-82.4559
0
LINE
8
BLACK
6
CONTINUOUS
10
119.539
20
-82.4559
11
119.535
21
-82.44
0
LINE
8
BLACK
6
CONTINUOUS
10
119.535
20
-82.44
11
119.529
21
-82.4245
0
LINE
8
BLACK
6
CONTINUOUS
10
119.529
20
-82.4245
11
119.516
21
-82.3596
0
LINE
8
BLACK
6
CONTINUOUS
10
119.516
20
-82.3596
11
119.474
21
-82.2595
0
LINE
8
BLACK
6
CONTINUOUS
10
119.474
20
-82.2595
11
119.414
21
-82.1694
0
LINE
8
BLACK
6
CONTINUOUS
10
119.414
20
-82.1694
11
119.337
21
-82.0928
0
LINE
8
BLACK
6
CONTINUOUS
10
119.337
20
-82.0928
11
119.247
21
-82.0326
0
LINE
8
BLACK
6
CONTINUOUS
10
119.247
20
-82.0326
11
119.147
21
-81.9912
0
LINE
8
BLACK
6
CONTINUOUS
10
119.147
20
-81.9912
11
119.041
21
-81.97
0
LINE
8
BLACK
6
CONTINUOUS
10
119.041
20
-81.97
11
118.933
21
-81.97
0
LINE
8
BLACK
6
CONTINUOUS
10
104.046
20
-85.02
11
103.884
21
-85.0359
0
LINE
8
BLACK
6
CONTINUOUS
10
103.884
20
-85.0359
11
103.677
21
-85.0988
0
LINE
8
BLACK
6
CONTINUOUS
10
103.677
20
-85.0988
11
103.486
21
-85.201
0
LINE
8
BLACK
6
CONTINUOUS
10
103.486
20
-85.201
11
103.318
21
-85.3384
0
LINE
8
BLACK
6
CONTINUOUS
10
103.318
20
-85.3384
11
103.181
21
-85.5059
0
LINE
8
BLACK
6
CONTINUOUS
10
103.181
20
-85.5059
11
103.079
21
-85.697
0
LINE
8
BLACK
6
CONTINUOUS
10
103.079
20
-85.697
11
103.016
21
-85.9044
0
LINE
8
BLACK
6
CONTINUOUS
10
103.016
20
-85.9044
11
102.995
21
-86.12
0
LINE
8
BLACK
6
CONTINUOUS
10
102.995
20
-86.12
11
103.016
21
-86.3356
0
LINE
8
BLACK
6
CONTINUOUS
10
103.016
20
-86.3356
11
103.079
21
-86.543
0
LINE
8
BLACK
6
CONTINUOUS
10
103.079
20
-86.543
11
103.181
21
-86.7341
0
LINE
8
BLACK
6
CONTINUOUS
10
103.181
20
-86.7341
11
103.318
21
-86.9016
0
LINE
8
BLACK
6
CONTINUOUS
10
103.318
20
-86.9016
11
103.486
21
-87.039
0
LINE
8
BLACK
6
CONTINUOUS
10
103.486
20
-87.039
11
103.677
21
-87.1412
0
LINE
8
BLACK
6
CONTINUOUS
10
103.677
20
-87.1412
11
103.884
21
-87.2041
0
LINE
8
BLACK
6
CONTINUOUS
10
103.884
20
-87.2041
11
104.046
21
-87.22
0
LINE
8
BLACK
6
CONTINUOUS
10
104.046
20
-87.22
11
105.954
21
-87.22
0
LINE
8
BLACK
6
CONTINUOUS
10
105.954
20
-87.22
11
106.116
21
-87.2041
0
LINE
8
BLACK
6
CONTINUOUS
10
106.116
20
-87.2041
11
106.323
21
-87.1412
0
LINE
8
BLACK
6
CONTINUOUS
10
106.323
20
-87.1412
11
106.514
21
-87.039
0
LINE
8
BLACK
6
CONTINUOUS
10
106.514
20
-87.039
11
106.682
21
-86.9016
0
LINE
8
BLACK
6
CONTINUOUS
10
106.682
20
-86.9016
11
106.819
21
-86.7341
0
LINE
8
BLACK
6
CONTINUOUS
10
106.819
20
-86.7341
11
106.921
21
-86.543
0
LINE
8
BLACK
6
CONTINUOUS
10
106.921
20
-86.543
11
106.984
21
-86.3356
0
LINE
8
BLACK
6
CONTINUOUS
10
106.984
20
-86.3356
11
107.005
21
-86.12
0
LINE
8
BLACK
6
CONTINUOUS
10
107.005
20
-86.12
11
106.984
21
-85.9044
0
LINE
8
BLACK
6
CONTINUOUS
10
106.984
20
-85.9044
11
106.921
21
-85.697
0
LINE
8
BLACK
6
CONTINUOUS
10
106.921
20
-85.697
11
106.819
21
-85.5059
0
LINE
8
BLACK
6
CONTINUOUS
10
106.819
20
-85.5059
11
106.682
21
-85.3384
0
LINE
8
BLACK
6
CONTINUOUS
10
106.682
20
-85.3384
11
106.514
21
-85.201
0
LINE
8
BLACK
6
CONTINUOUS
10
106.514
20
-85.201
11
106.323
21
-85.0988
0
LINE
8
BLACK
6
CONTINUOUS
10
106.323
20
-85.0988
11
106.116
21
-85.0359
0
LINE
8
BLACK
6
CONTINUOUS
10
106.116
20
-85.0359
11
105.954
21
-85.02
0
LINE
8
BLACK
6
CONTINUOUS
10
105.954
20
-85.02
11
104.046
21
-85.02
0
LINE
8
BLACK
6
CONTINUOUS
10
104.046
20
-79.94
11
103.884
21
-79.9559
0
LINE
8
BLACK
6
CONTINUOUS
10
103.884
20
-79.9559
11
103.677
21
-80.0188
0
LINE
8
BLACK
6
CONTINUOUS
10
103.677
20
-80.0188
11
103.486
21
-80.121
0
LINE
8
BLACK
6
CONTINUOUS
10
103.486
20
-80.121
11
103.318
21
-80.2584
0
LINE
8
BLACK
6
CONTINUOUS
10
103.318
20
-80.2584
11
103.181
21
-80.4259
0
LINE
8
BLACK
6
CONTINUOUS
10
103.181
20
-80.4259
11
103.079
21
-80.617
0
LINE
8
BLACK
6
CONTINUOUS
10
103.079
20
-80.617
11
103.016
21
-80.8244
0
LINE
8
BLACK
6
CONTINUOUS
10
103.016
20
-80.8244
11
102.995
21
-81.04
0
LINE
8
BLACK
6
CONTINUOUS
10
102.995
20
-81.04
11
103.016
21
-81.2556
0
LINE
8
BLACK
6
CONTINUOUS
10
103.016
20
-81.2556
11
103.079
21
-81.463
0
LINE
8
BLACK
6
CONTINUOUS
10
103.079
20
-81.463
11
103.181
21
-81.6541
0
LINE
8
BLACK
6
CONTINUOUS
10
103.181
20
-81.6541
11
103.318
21
-81.8216
0
LINE
8
BLACK
6
CONTINUOUS
10
103.318
20
-81.8216
11
103.486
21
-81.959
0
LINE
8
BLACK
6
CONTINUOUS
10
103.486
20
-81.959
11
103.677
21
-82.0612
0
LINE
8
BLACK
6
CONTINUOUS
10
103.677
20
-82.0612
11
103.884
21
-82.1241
0
LINE
8
BLACK
6
CONTINUOUS
10
103.884
20
-82.1241
11
104.046
21
-82.14
0
LINE
8
BLACK
6
CONTINUOUS
10
104.046
20
-82.14
11
105.954
21
-82.14
0
LINE
8
BLACK
6
CONTINUOUS
10
105.954
20
-82.14
11
106.116
21
-82.1241
0
LINE
8
BLACK
6
CONTINUOUS
10
106.116
20
-82.1241
11
106.323
21
-82.0612
0
LINE
8
BLACK
6
CONTINUOUS
10
106.323
20
-82.0612
11
106.514
21
-81.959
0
LINE
8
BLACK
6
CONTINUOUS
10
106.514
20
-81.959
11
106.682
21
-81.8216
0
LINE
8
BLACK
6
CONTINUOUS
10
106.682
20
-81.8216
11
106.819
21
-81.6541
0
LINE
8
BLACK
6
CONTINUOUS
10
106.819
20
-81.6541
11
106.921
21
-81.463
0
LINE
8
BLACK
6
CONTINUOUS
10
106.921
20
-81.463
11
106.984
21
-81.2556
0
LINE
8
BLACK
6
CONTINUOUS
10
106.984
20
-81.2556
11
107.005
21
-81.04
0
LINE
8
BLACK
6
CONTINUOUS
10
107.005
20
-81.04
11
106.984
21
-80.8244
0
LINE
8
BLACK
6
CONTINUOUS
10
106.984
20
-80.8244
11
106.921
21
-80.617
0
LINE
8
BLACK
6
CONTINUOUS
10
106.921
20
-80.617
11
106.819
21
-80.4259
0
LINE
8
BLACK
6
CONTINUOUS
10
106.819
20
-80.4259
11
106.682
21
-80.2584
0
LINE
8
BLACK
6
CONTINUOUS
10
106.682
20
-80.2584
11
106.514
21
-80.121
0
LINE
8
BLACK
6
CONTINUOUS
10
106.514
20
-80.121
11
106.323
21
-80.0188
0
LINE
8
BLACK
6
CONTINUOUS
10
106.323
20
-80.0188
11
106.116
21
-79.9559
0
LINE
8
BLACK
6
CONTINUOUS
10
106.116
20
-79.9559
11
105.954
21
-79.94
0
LINE
8
BLACK
6
CONTINUOUS
10
105.954
20
-79.94
11
104.046
21
-79.94
0
LINE
8
BLACK
6
CONTINUOUS
10
164.326
20
-80.204
11
164.242
21
-80.2884
0
LINE
8
BLACK
6
CONTINUOUS
10
164.242
20
-80.2884
11
164.242
21
-80.5681
0
LINE
8
BLACK
6
CONTINUOUS
10
164.242
20
-80.5681
11
164.256
21
-80.5706
0
LINE
8
BLACK
6
CONTINUOUS
10
164.256
20
-80.5706
11
164.394
21
-80.65
0
LINE
8
BLACK
6
CONTINUOUS
10
164.394
20
-80.65
11
164.496
21
-80.7715
0
LINE
8
BLACK
6
CONTINUOUS
10
164.496
20
-80.7715
11
164.55
21
-80.9207
0
LINE
8
BLACK
6
CONTINUOUS
10
164.55
20
-80.9207
11
164.55
21
-81.0793
0
LINE
8
BLACK
6
CONTINUOUS
10
164.55
20
-81.0793
11
164.522
21
-81.1555
0
LINE
8
BLACK
6
CONTINUOUS
10
164.522
20
-81.1555
11
164.602
21
-81.1885
0
LINE
8
BLACK
6
CONTINUOUS
10
164.602
20
-81.1885
11
164.7
21
-81.208
0
LINE
8
BLACK
6
CONTINUOUS
10
164.7
20
-81.208
11
166.662
21
-81.208
0
LINE
8
BLACK
6
CONTINUOUS
10
166.662
20
-81.208
11
166.746
21
-81.1236
0
LINE
8
BLACK
6
CONTINUOUS
10
166.746
20
-81.1236
11
166.746
21
-80.7
0
LINE
8
BLACK
6
CONTINUOUS
10
166.746
20
-80.7
11
164.75
21
-80.7
0
LINE
8
BLACK
6
CONTINUOUS
10
164.75
20
-80.7
11
164.75
21
-80.204
0
LINE
8
BLACK
6
CONTINUOUS
10
164.75
20
-80.204
11
164.326
21
-80.204
0
LINE
8
BLACK
6
CONTINUOUS
10
164.7
20
-78.692
11
164.602
21
-78.7115
0
LINE
8
BLACK
6
CONTINUOUS
10
164.602
20
-78.7115
11
164.509
21
-78.7498
0
LINE
8
BLACK
6
CONTINUOUS
10
164.509
20
-78.7498
11
164.437
21
-78.7984
0
LINE
8
BLACK
6
CONTINUOUS
10
164.437
20
-78.7984
11
164.408
21
-78.8777
0
LINE
8
BLACK
6
CONTINUOUS
10
164.408
20
-78.8777
11
164.328
21
-78.9723
0
LINE
8
BLACK
6
CONTINUOUS
10
164.328
20
-78.9723
11
164.284
21
-78.998
0
LINE
8
BLACK
6
CONTINUOUS
10
164.284
20
-78.998
11
164.262
21
-79.0518
0
LINE
8
BLACK
6
CONTINUOUS
10
164.262
20
-79.0518
11
164.242
21
-79.15
0
LINE
8
BLACK
6
CONTINUOUS
10
164.242
20
-79.15
11
164.242
21
-79.6116
0
LINE
8
BLACK
6
CONTINUOUS
10
164.242
20
-79.6116
11
164.326
21
-79.696
0
LINE
8
BLACK
6
CONTINUOUS
10
164.326
20
-79.696
11
164.75
21
-79.696
0
LINE
8
BLACK
6
CONTINUOUS
10
164.75
20
-79.696
11
164.75
21
-79.2
0
LINE
8
BLACK
6
CONTINUOUS
10
164.75
20
-79.2
11
166.746
21
-79.2
0
LINE
8
BLACK
6
CONTINUOUS
10
166.746
20
-79.2
11
166.746
21
-78.7764
0
LINE
8
BLACK
6
CONTINUOUS
10
166.746
20
-78.7764
11
166.662
21
-78.692
0
LINE
8
BLACK
6
CONTINUOUS
10
166.662
20
-78.692
11
164.7
21
-78.692
0
LINE
8
BLACK
6
CONTINUOUS
10
106.765
20
-76.214
11
106.691
21
-76.4169
0
LINE
8
BLACK
6
CONTINUOUS
10
106.691
20
-76.4169
11
106.487
21
-76.6601
0
LINE
8
BLACK
6
CONTINUOUS
10
106.487
20
-76.6601
11
106.213
21
-76.8188
0
LINE
8
BLACK
6
CONTINUOUS
10
106.213
20
-76.8188
11
105.979
21
-76.86
0
LINE
8
BLACK
6
CONTINUOUS
10
105.979
20
-76.86
11
105.254
21
-76.86
0
LINE
8
BLACK
6
CONTINUOUS
10
105.254
20
-76.86
11
105.254
21
-77.368
0
LINE
8
BLACK
6
CONTINUOUS
10
105.254
20
-77.368
11
106.015
21
-77.368
0
LINE
8
BLACK
6
CONTINUOUS
10
106.015
20
-77.368
11
106.289
21
-77.318
0
LINE
8
BLACK
6
CONTINUOUS
10
106.289
20
-77.318
11
106.546
21
-77.2161
0
LINE
8
BLACK
6
CONTINUOUS
10
106.546
20
-77.2161
11
106.779
21
-77.0658
0
LINE
8
BLACK
6
CONTINUOUS
10
106.779
20
-77.0658
11
106.978
21
-76.8731
0
LINE
8
BLACK
6
CONTINUOUS
10
106.978
20
-76.8731
11
107.135
21
-76.6453
0
LINE
8
BLACK
6
CONTINUOUS
10
107.135
20
-76.6453
11
107.246
21
-76.3903
0
LINE
8
BLACK
6
CONTINUOUS
10
107.246
20
-76.3903
11
107.257
21
-76.3411
0
LINE
8
BLACK
6
CONTINUOUS
10
107.257
20
-76.3411
11
107.192
21
-76.214
0
LINE
8
BLACK
6
CONTINUOUS
10
107.192
20
-76.214
11
106.765
21
-76.214
0
LINE
8
BLACK
6
CONTINUOUS
10
102.808
20
-76.214
11
102.743
21
-76.3411
0
LINE
8
BLACK
6
CONTINUOUS
10
102.743
20
-76.3411
11
102.754
21
-76.3903
0
LINE
8
BLACK
6
CONTINUOUS
10
102.754
20
-76.3903
11
102.865
21
-76.6453
0
LINE
8
BLACK
6
CONTINUOUS
10
102.865
20
-76.6453
11
103.022
21
-76.8731
0
LINE
8
BLACK
6
CONTINUOUS
10
103.022
20
-76.8731
11
103.221
21
-77.0658
0
LINE
8
BLACK
6
CONTINUOUS
10
103.221
20
-77.0658
11
103.454
21
-77.2161
0
LINE
8
BLACK
6
CONTINUOUS
10
103.454
20
-77.2161
11
103.711
21
-77.318
0
LINE
8
BLACK
6
CONTINUOUS
10
103.711
20
-77.318
11
103.985
21
-77.368
0
LINE
8
BLACK
6
CONTINUOUS
10
103.985
20
-77.368
11
104.746
21
-77.368
0
LINE
8
BLACK
6
CONTINUOUS
10
104.746
20
-77.368
11
104.746
21
-76.86
0
LINE
8
BLACK
6
CONTINUOUS
10
104.746
20
-76.86
11
104.021
21
-76.86
0
LINE
8
BLACK
6
CONTINUOUS
10
104.021
20
-76.86
11
103.787
21
-76.8188
0
LINE
8
BLACK
6
CONTINUOUS
10
103.787
20
-76.8188
11
103.513
21
-76.6601
0
LINE
8
BLACK
6
CONTINUOUS
10
103.513
20
-76.6601
11
103.309
21
-76.4169
0
LINE
8
BLACK
6
CONTINUOUS
10
103.309
20
-76.4169
11
103.235
21
-76.214
0
LINE
8
BLACK
6
CONTINUOUS
10
103.235
20
-76.214
11
102.808
21
-76.214
0
LINE
8
BLACK
6
CONTINUOUS
10
164.326
20
-75.104
11
164.242
21
-75.1884
0
LINE
8
BLACK
6
CONTINUOUS
10
164.242
20
-75.1884
11
164.242
21
-75.65
0
LINE
8
BLACK
6
CONTINUOUS
10
164.242
20
-75.65
11
164.262
21
-75.7482
0
LINE
8
BLACK
6
CONTINUOUS
10
164.262
20
-75.7482
11
164.284
21
-75.802
0
LINE
8
BLACK
6
CONTINUOUS
10
164.284
20
-75.802
11
164.328
21
-75.8277
0
LINE
8
BLACK
6
CONTINUOUS
10
164.328
20
-75.8277
11
164.408
21
-75.9223
0
LINE
8
BLACK
6
CONTINUOUS
10
164.408
20
-75.9223
11
164.437
21
-76.0016
0
LINE
8
BLACK
6
CONTINUOUS
10
164.437
20
-76.0016
11
164.509
21
-76.0502
0
LINE
8
BLACK
6
CONTINUOUS
10
164.509
20
-76.0502
11
164.602
21
-76.0885
0
LINE
8
BLACK
6
CONTINUOUS
10
164.602
20
-76.0885
11
164.7
21
-76.108
0
LINE
8
BLACK
6
CONTINUOUS
10
164.7
20
-76.108
11
166.662
21
-76.108
0
LINE
8
BLACK
6
CONTINUOUS
10
166.662
20
-76.108
11
166.746
21
-76.0236
0
LINE
8
BLACK
6
CONTINUOUS
10
166.746
20
-76.0236
11
166.746
21
-75.6
0
LINE
8
BLACK
6
CONTINUOUS
10
166.746
20
-75.6
11
164.75
21
-75.6
0
LINE
8
BLACK
6
CONTINUOUS
10
164.75
20
-75.6
11
164.75
21
-75.104
0
LINE
8
BLACK
6
CONTINUOUS
10
164.75
20
-75.104
11
164.326
21
-75.104
0
LINE
8
BLACK
6
CONTINUOUS
10
105.254
20
-74.552
11
105.254
21
-75.06
0
LINE
8
BLACK
6
CONTINUOUS
10
105.254
20
-75.06
11
105.979
21
-75.06
0
LINE
8
BLACK
6
CONTINUOUS
10
105.979
20
-75.06
11
106.213
21
-75.1012
0
LINE
8
BLACK
6
CONTINUOUS
10
106.213
20
-75.1012
11
106.487
21
-75.2599
0
LINE
8
BLACK
6
CONTINUOUS
10
106.487
20
-75.2599
11
106.691
21
-75.5031
0
LINE
8
BLACK
6
CONTINUOUS
10
106.691
20
-75.5031
11
106.765
21
-75.706
0
LINE
8
BLACK
6
CONTINUOUS
10
106.765
20
-75.706
11
107.192
21
-75.706
0
LINE
8
BLACK
6
CONTINUOUS
10
107.192
20
-75.706
11
107.257
21
-75.5789
0
LINE
8
BLACK
6
CONTINUOUS
10
107.257
20
-75.5789
11
107.246
21
-75.5297
0
LINE
8
BLACK
6
CONTINUOUS
10
107.246
20
-75.5297
11
107.135
21
-75.2747
0
LINE
8
BLACK
6
CONTINUOUS
10
107.135
20
-75.2747
11
106.978
21
-75.0469
0
LINE
8
BLACK
6
CONTINUOUS
10
106.978
20
-75.0469
11
106.779
21
-74.8542
0
LINE
8
BLACK
6
CONTINUOUS
10
106.779
20
-74.8542
11
106.546
21
-74.7039
0
LINE
8
BLACK
6
CONTINUOUS
10
106.546
20
-74.7039
11
106.289
21
-74.602
0
LINE
8
BLACK
6
CONTINUOUS
10
106.289
20
-74.602
11
106.015
21
-74.552
0
LINE
8
BLACK
6
CONTINUOUS
10
106.015
20
-74.552
11
105.254
21
-74.552
0
LINE
8
BLACK
6
CONTINUOUS
10
103.985
20
-74.552
11
103.711
21
-74.602
0
LINE
8
BLACK
6
CONTINUOUS
10
103.711
20
-74.602
11
103.454
21
-74.7039
0
LINE
8
BLACK
6
CONTINUOUS
10
103.454
20
-74.7039
11
103.221
21
-74.8542
0
LINE
8
BLACK
6
CONTINUOUS
10
103.221
20
-74.8542
11
103.022
21
-75.0469
0
LINE
8
BLACK
6
CONTINUOUS
10
103.022
20
-75.0469
11
102.865
21
-75.2747
0
LINE
8
BLACK
6
CONTINUOUS
10
102.865
20
-75.2747
11
102.754
21
-75.5297
0
LINE
8
BLACK
6
CONTINUOUS
10
102.754
20
-75.5297
11
102.743
21
-75.5789
0
LINE
8
BLACK
6
CONTINUOUS
10
102.743
20
-75.5789
11
102.808
21
-75.706
0
LINE
8
BLACK
6
CONTINUOUS
10
102.808
20
-75.706
11
103.235
21
-75.706
0
LINE
8
BLACK
6
CONTINUOUS
10
103.235
20
-75.706
11
103.309
21
-75.5031
0
LINE
8
BLACK
6
CONTINUOUS
10
103.309
20
-75.5031
11
103.513
21
-75.2599
0
LINE
8
BLACK
6
CONTINUOUS
10
103.513
20
-75.2599
11
103.787
21
-75.1012
0
LINE
8
BLACK
6
CONTINUOUS
10
103.787
20
-75.1012
11
104.021
21
-75.06
0
LINE
8
BLACK
6
CONTINUOUS
10
104.021
20
-75.06
11
104.746
21
-75.06
0
LINE
8
BLACK
6
CONTINUOUS
10
104.746
20
-75.06
11
104.746
21
-74.552
0
LINE
8
BLACK
6
CONTINUOUS
10
104.746
20
-74.552
11
103.985
21
-74.552
0
LINE
8
BLACK
6
CONTINUOUS
10
164.7
20
-73.592
11
164.602
21
-73.6115
0
LINE
8
BLACK
6
CONTINUOUS
10
164.602
20
-73.6115
11
164.527
21
-73.6425
0
LINE
8
BLACK
6
CONTINUOUS
10
164.527
20
-73.6425
11
164.496
21
-73.7285
0
LINE
8
BLACK
6
CONTINUOUS
10
164.496
20
-73.7285
11
164.394
21
-73.85
0
LINE
8
BLACK
6
CONTINUOUS
10
164.394
20
-73.85
11
164.275
21
-73.9184
0
LINE
8
BLACK
6
CONTINUOUS
10
164.275
20
-73.9184
11
164.262
21
-73.9518
0
LINE
8
BLACK
6
CONTINUOUS
10
164.262
20
-73.9518
11
164.242
21
-74.05
0
LINE
8
BLACK
6
CONTINUOUS
10
164.242
20
-74.05
11
164.242
21
-74.5116
0
LINE
8
BLACK
6
CONTINUOUS
10
164.242
20
-74.5116
11
164.326
21
-74.596
0
LINE
8
BLACK
6
CONTINUOUS
10
164.326
20
-74.596
11
164.75
21
-74.596
0
LINE
8
BLACK
6
CONTINUOUS
10
164.75
20
-74.596
11
164.75
21
-74.1
0
LINE
8
BLACK
6
CONTINUOUS
10
164.75
20
-74.1
11
166.746
21
-74.1
0
LINE
8
BLACK
6
CONTINUOUS
10
166.746
20
-74.1
11
166.746
21
-73.6764
0
LINE
8
BLACK
6
CONTINUOUS
10
166.746
20
-73.6764
11
166.662
21
-73.592
0
LINE
8
BLACK
6
CONTINUOUS
10
166.662
20
-73.592
11
164.7
21
-73.592
0
LINE
8
BLACK
6
CONTINUOUS
10
120.397
20
-68.95
11
120.194
21
-68.9903
0
LINE
8
BLACK
6
CONTINUOUS
10
120.194
20
-68.9903
11
120.003
21
-69.0695
0
LINE
8
BLACK
6
CONTINUOUS
10
120.003
20
-69.0695
11
119.831
21
-69.1844
0
LINE
8
BLACK
6
CONTINUOUS
10
119.831
20
-69.1844
11
119.684
21
-69.3307
0
LINE
8
BLACK
6
CONTINUOUS
10
119.684
20
-69.3307
11
119.57
21
-69.5026
0
LINE
8
BLACK
6
CONTINUOUS
10
119.57
20
-69.5026
11
119.532
21
-69.5939
0
LINE
8
BLACK
6
CONTINUOUS
10
119.532
20
-69.5939
11
119.521
21
-69.6107
0
LINE
8
BLACK
6
CONTINUOUS
10
119.521
20
-69.6107
11
119.511
21
-69.6278
0
LINE
8
BLACK
6
CONTINUOUS
10
119.511
20
-69.6278
11
119.509
21
-69.6292
0
LINE
8
BLACK
6
CONTINUOUS
10
119.509
20
-69.6292
11
119.508
21
-69.6311
0
LINE
8
BLACK
6
CONTINUOUS
10
119.508
20
-69.6311
11
119.492
21
-69.6432
0
LINE
8
BLACK
6
CONTINUOUS
10
119.492
20
-69.6432
11
119.477
21
-69.6559
0
LINE
8
BLACK
6
CONTINUOUS
10
119.477
20
-69.6559
11
119.475
21
-69.6566
0
LINE
8
BLACK
6
CONTINUOUS
10
119.475
20
-69.6566
11
119.473
21
-69.658
0
LINE
8
BLACK
6
CONTINUOUS
10
119.473
20
-69.658
11
119.454
21
-69.6639
0
LINE
8
BLACK
6
CONTINUOUS
10
119.454
20
-69.6639
11
119.435
21
-69.6706
0
LINE
8
BLACK
6
CONTINUOUS
10
119.435
20
-69.6706
11
119.433
21
-69.6706
0
LINE
8
BLACK
6
CONTINUOUS
10
119.433
20
-69.6706
11
119.431
21
-69.6712
0
LINE
8
BLACK
6
CONTINUOUS
10
119.431
20
-69.6712
11
119.411
21
-69.6704
0
LINE
8
BLACK
6
CONTINUOUS
10
119.411
20
-69.6704
11
119.391
21
-69.6702
0
LINE
8
BLACK
6
CONTINUOUS
10
119.391
20
-69.6702
11
119.389
21
-69.6694
0
LINE
8
BLACK
6
CONTINUOUS
10
119.389
20
-69.6694
11
119.387
21
-69.6693
0
LINE
8
BLACK
6
CONTINUOUS
10
119.387
20
-69.6693
11
119.369
21
-69.6617
0
LINE
8
BLACK
6
CONTINUOUS
10
119.369
20
-69.6617
11
119.35
21
-69.6548
0
LINE
8
BLACK
6
CONTINUOUS
10
119.35
20
-69.6548
11
119.348
21
-69.6533
0
LINE
8
BLACK
6
CONTINUOUS
10
119.348
20
-69.6533
11
119.346
21
-69.6524
0
LINE
8
BLACK
6
CONTINUOUS
10
119.346
20
-69.6524
11
119.331
21
-69.639
0
LINE
8
BLACK
6
CONTINUOUS
10
119.331
20
-69.639
11
119.316
21
-69.6261
0
LINE
8
BLACK
6
CONTINUOUS
10
119.316
20
-69.6261
11
119.315
21
-69.6242
0
LINE
8
BLACK
6
CONTINUOUS
10
119.315
20
-69.6242
11
119.314
21
-69.6226
0
LINE
8
BLACK
6
CONTINUOUS
10
119.314
20
-69.6226
11
119.304
21
-69.605
0
LINE
8
BLACK
6
CONTINUOUS
10
119.304
20
-69.605
11
119.295
21
-69.5877
0
LINE
8
BLACK
6
CONTINUOUS
10
119.295
20
-69.5877
11
119.234
21
-69.4177
0
LINE
8
BLACK
6
CONTINUOUS
10
119.234
20
-69.4177
11
119.19
21
-69.3346
0
LINE
8
BLACK
6
CONTINUOUS
10
119.19
20
-69.3346
11
119.064
21
-69.2953
0
LINE
8
BLACK
6
CONTINUOUS
10
119.064
20
-69.2953
11
118.759
21
-69.6002
0
LINE
8
BLACK
6
CONTINUOUS
10
118.759
20
-69.6002
11
118.85
21
-69.8501
0
LINE
8
BLACK
6
CONTINUOUS
10
118.85
20
-69.8501
11
118.85
21
-70.1499
0
LINE
8
BLACK
6
CONTINUOUS
10
118.85
20
-70.1499
11
118.747
21
-70.4316
0
LINE
8
BLACK
6
CONTINUOUS
10
118.747
20
-70.4316
11
118.555
21
-70.6612
0
LINE
8
BLACK
6
CONTINUOUS
10
118.555
20
-70.6612
11
118.295
21
-70.8111
0
LINE
8
BLACK
6
CONTINUOUS
10
118.295
20
-70.8111
11
118
21
-70.8631
0
LINE
8
BLACK
6
CONTINUOUS
10
118
20
-70.8631
11
117.705
21
-70.8111
0
LINE
8
BLACK
6
CONTINUOUS
10
117.705
20
-70.8111
11
117.445
21
-70.6612
0
LINE
8
BLACK
6
CONTINUOUS
10
117.445
20
-70.6612
11
117.253
21
-70.4316
0
LINE
8
BLACK
6
CONTINUOUS
10
117.253
20
-70.4316
11
117.15
21
-70.1499
0
LINE
8
BLACK
6
CONTINUOUS
10
117.15
20
-70.1499
11
117.15
21
-69.8501
0
LINE
8
BLACK
6
CONTINUOUS
10
117.15
20
-69.8501
11
117.241
21
-69.6002
0
LINE
8
BLACK
6
CONTINUOUS
10
117.241
20
-69.6002
11
116.936
21
-69.2953
0
LINE
8
BLACK
6
CONTINUOUS
10
116.936
20
-69.2953
11
116.813
21
-69.3336
0
LINE
8
BLACK
6
CONTINUOUS
10
116.813
20
-69.3336
11
116.717
21
-69.5363
0
LINE
8
BLACK
6
CONTINUOUS
10
116.717
20
-69.5363
11
116.651
21
-69.7955
0
LINE
8
BLACK
6
CONTINUOUS
10
116.651
20
-69.7955
11
116.637
21
-70.0627
0
LINE
8
BLACK
6
CONTINUOUS
10
116.637
20
-70.0627
11
116.675
21
-70.3274
0
LINE
8
BLACK
6
CONTINUOUS
10
116.675
20
-70.3274
11
116.766
21
-70.5823
0
LINE
8
BLACK
6
CONTINUOUS
10
116.766
20
-70.5823
11
116.81
21
-70.6654
0
LINE
8
BLACK
6
CONTINUOUS
10
116.81
20
-70.6654
11
117.009
21
-70.7275
0
LINE
8
BLACK
6
CONTINUOUS
10
117.009
20
-70.7275
11
117.027
21
-70.7365
0
LINE
8
BLACK
6
CONTINUOUS
10
117.027
20
-70.7365
11
117.044
21
-70.7448
0
LINE
8
BLACK
6
CONTINUOUS
10
117.044
20
-70.7448
11
117.046
21
-70.7466
0
LINE
8
BLACK
6
CONTINUOUS
10
117.046
20
-70.7466
11
117.049
21
-70.7478
0
LINE
8
BLACK
6
CONTINUOUS
10
117.049
20
-70.7478
11
117.062
21
-70.7621
0
LINE
8
BLACK
6
CONTINUOUS
10
117.062
20
-70.7621
11
117.076
21
-70.7759
0
LINE
8
BLACK
6
CONTINUOUS
10
117.076
20
-70.7759
11
117.077
21
-70.7783
0
LINE
8
BLACK
6
CONTINUOUS
10
117.077
20
-70.7783
11
117.078
21
-70.7802
0
LINE
8
BLACK
6
CONTINUOUS
10
117.078
20
-70.7802
11
117.086
21
-70.7982
0
LINE
8
BLACK
6
CONTINUOUS
10
117.086
20
-70.7982
11
117.094
21
-70.8159
0
LINE
8
BLACK
6
CONTINUOUS
10
117.094
20
-70.8159
11
117.094
21
-70.8185
0
LINE
8
BLACK
6
CONTINUOUS
10
117.094
20
-70.8185
11
117.096
21
-70.8209
0
LINE
8
BLACK
6
CONTINUOUS
10
117.096
20
-70.8209
11
117.096
21
-70.8404
0
LINE
8
BLACK
6
CONTINUOUS
10
117.096
20
-70.8404
11
117.098
21
-70.8599
0
LINE
8
BLACK
6
CONTINUOUS
10
117.098
20
-70.8599
11
117.097
21
-70.8624
0
LINE
8
BLACK
6
CONTINUOUS
10
117.097
20
-70.8624
11
117.098
21
-70.865
0
LINE
8
BLACK
6
CONTINUOUS
10
117.098
20
-70.865
11
117.092
21
-70.8836
0
LINE
8
BLACK
6
CONTINUOUS
10
117.092
20
-70.8836
11
117.087
21
-70.9025
0
LINE
8
BLACK
6
CONTINUOUS
10
117.087
20
-70.9025
11
117.085
21
-70.9046
0
LINE
8
BLACK
6
CONTINUOUS
10
117.085
20
-70.9046
11
117.084
21
-70.9071
0
LINE
8
BLACK
6
CONTINUOUS
10
117.084
20
-70.9071
11
117.073
21
-70.9226
0
LINE
8
BLACK
6
CONTINUOUS
10
117.073
20
-70.9226
11
117.061
21
-70.9386
0
LINE
8
BLACK
6
CONTINUOUS
10
117.061
20
-70.9386
11
116.993
21
-71.0065
0
LINE
8
BLACK
6
CONTINUOUS
10
116.993
20
-71.0065
11
116.993
21
-71.0125
0
LINE
8
BLACK
6
CONTINUOUS
10
116.993
20
-71.0125
11
116.987
21
-71.0257
0
LINE
8
BLACK
6
CONTINUOUS
10
116.987
20
-71.0257
11
116.982
21
-71.0395
0
LINE
8
BLACK
6
CONTINUOUS
10
116.982
20
-71.0395
11
116.964
21
-71.0731
0
LINE
8
BLACK
6
CONTINUOUS
10
116.964
20
-71.0731
11
116.953
21
-71.1108
0
LINE
8
BLACK
6
CONTINUOUS
10
116.953
20
-71.1108
11
116.948
21
-71.1562
0
LINE
8
BLACK
6
CONTINUOUS
10
116.948
20
-71.1562
11
116.948
21
-72.8438
0
LINE
8
BLACK
6
CONTINUOUS
10
116.948
20
-72.8438
11
116.953
21
-72.8892
0
LINE
8
BLACK
6
CONTINUOUS
10
116.953
20
-72.8892
11
116.964
21
-72.9269
0
LINE
8
BLACK
6
CONTINUOUS
10
116.964
20
-72.9269
11
116.983
21
-72.9617
0
LINE
8
BLACK
6
CONTINUOUS
10
116.983
20
-72.9617
11
117.008
21
-72.9921
0
LINE
8
BLACK
6
CONTINUOUS
10
117.008
20
-72.9921
11
117.038
21
-73.0171
0
LINE
8
BLACK
6
CONTINUOUS
10
117.038
20
-73.0171
11
117.073
21
-73.0357
0
LINE
8
BLACK
6
CONTINUOUS
10
117.073
20
-73.0357
11
117.111
21
-73.0471
0
LINE
8
BLACK
6
CONTINUOUS
10
117.111
20
-73.0471
11
117.156
21
-73.0516
0
LINE
8
BLACK
6
CONTINUOUS
10
117.156
20
-73.0516
11
118.844
21
-73.0516
0
LINE
8
BLACK
6
CONTINUOUS
10
118.844
20
-73.0516
11
118.889
21
-73.0471
0
LINE
8
BLACK
6
CONTINUOUS
10
118.889
20
-73.0471
11
118.927
21
-73.0357
0
LINE
8
BLACK
6
CONTINUOUS
10
118.927
20
-73.0357
11
118.962
21
-73.0171
0
LINE
8
BLACK
6
CONTINUOUS
10
118.962
20
-73.0171
11
118.992
21
-72.9921
0
LINE
8
BLACK
6
CONTINUOUS
10
118.992
20
-72.9921
11
119.017
21
-72.9617
0
LINE
8
BLACK
6
CONTINUOUS
10
119.017
20
-72.9617
11
119.036
21
-72.9269
0
LINE
8
BLACK
6
CONTINUOUS
10
119.036
20
-72.9269
11
119.047
21
-72.8892
0
LINE
8
BLACK
6
CONTINUOUS
10
119.047
20
-72.8892
11
119.052
21
-72.8438
0
LINE
8
BLACK
6
CONTINUOUS
10
119.052
20
-72.8438
11
119.052
21
-71.1562
0
LINE
8
BLACK
6
CONTINUOUS
10
119.052
20
-71.1562
11
119.047
21
-71.1108
0
LINE
8
BLACK
6
CONTINUOUS
10
119.047
20
-71.1108
11
119.036
21
-71.0731
0
LINE
8
BLACK
6
CONTINUOUS
10
119.036
20
-71.0731
11
119.018
21
-71.0395
0
LINE
8
BLACK
6
CONTINUOUS
10
119.018
20
-71.0395
11
119.013
21
-71.0257
0
LINE
8
BLACK
6
CONTINUOUS
10
119.013
20
-71.0257
11
119.007
21
-71.0125
0
LINE
8
BLACK
6
CONTINUOUS
10
119.007
20
-71.0125
11
119.007
21
-71.0065
0
LINE
8
BLACK
6
CONTINUOUS
10
119.007
20
-71.0065
11
118.939
21
-70.9386
0
LINE
8
BLACK
6
CONTINUOUS
10
118.939
20
-70.9386
11
118.927
21
-70.9226
0
LINE
8
BLACK
6
CONTINUOUS
10
118.927
20
-70.9226
11
118.916
21
-70.9071
0
LINE
8
BLACK
6
CONTINUOUS
10
118.916
20
-70.9071
11
118.915
21
-70.9046
0
LINE
8
BLACK
6
CONTINUOUS
10
118.915
20
-70.9046
11
118.913
21
-70.9025
0
LINE
8
BLACK
6
CONTINUOUS
10
118.913
20
-70.9025
11
118.908
21
-70.8836
0
LINE
8
BLACK
6
CONTINUOUS
10
118.908
20
-70.8836
11
118.902
21
-70.865
0
LINE
8
BLACK
6
CONTINUOUS
10
118.902
20
-70.865
11
118.903
21
-70.8624
0
LINE
8
BLACK
6
CONTINUOUS
10
118.903
20
-70.8624
11
118.902
21
-70.8599
0
LINE
8
BLACK
6
CONTINUOUS
10
118.902
20
-70.8599
11
118.904
21
-70.8404
0
LINE
8
BLACK
6
CONTINUOUS
10
118.904
20
-70.8404
11
118.905
21
-70.8209
0
LINE
8
BLACK
6
CONTINUOUS
10
118.905
20
-70.8209
11
118.906
21
-70.8185
0
LINE
8
BLACK
6
CONTINUOUS
10
118.906
20
-70.8185
11
118.906
21
-70.8159
0
LINE
8
BLACK
6
CONTINUOUS
10
118.906
20
-70.8159
11
118.914
21
-70.7982
0
LINE
8
BLACK
6
CONTINUOUS
10
118.914
20
-70.7982
11
118.922
21
-70.7802
0
LINE
8
BLACK
6
CONTINUOUS
10
118.922
20
-70.7802
11
118.923
21
-70.7783
0
LINE
8
BLACK
6
CONTINUOUS
10
118.923
20
-70.7783
11
118.924
21
-70.7759
0
LINE
8
BLACK
6
CONTINUOUS
10
118.924
20
-70.7759
11
118.938
21
-70.7621
0
LINE
8
BLACK
6
CONTINUOUS
10
118.938
20
-70.7621
11
118.951
21
-70.7478
0
LINE
8
BLACK
6
CONTINUOUS
10
118.951
20
-70.7478
11
118.954
21
-70.7466
0
LINE
8
BLACK
6
CONTINUOUS
10
118.954
20
-70.7466
11
118.956
21
-70.7448
0
LINE
8
BLACK
6
CONTINUOUS
10
118.956
20
-70.7448
11
118.973
21
-70.7365
0
LINE
8
BLACK
6
CONTINUOUS
10
118.973
20
-70.7365
11
118.991
21
-70.7275
0
LINE
8
BLACK
6
CONTINUOUS
10
118.991
20
-70.7275
11
119.187
21
-70.6664
0
LINE
8
BLACK
6
CONTINUOUS
10
119.187
20
-70.6664
11
119.283
21
-70.4637
0
LINE
8
BLACK
6
CONTINUOUS
10
119.283
20
-70.4637
11
119.293
21
-70.4269
0
LINE
8
BLACK
6
CONTINUOUS
10
119.293
20
-70.4269
11
119.294
21
-70.4236
0
LINE
8
BLACK
6
CONTINUOUS
10
119.294
20
-70.4236
11
119.295
21
-70.42
0
LINE
8
BLACK
6
CONTINUOUS
10
119.295
20
-70.42
11
119.303
21
-70.4036
0
LINE
8
BLACK
6
CONTINUOUS
10
119.303
20
-70.4036
11
119.311
21
-70.3867
0
LINE
8
BLACK
6
CONTINUOUS
10
119.311
20
-70.3867
11
119.313
21
-70.3841
0
LINE
8
BLACK
6
CONTINUOUS
10
119.313
20
-70.3841
11
119.315
21
-70.3808
0
LINE
8
BLACK
6
CONTINUOUS
10
119.315
20
-70.3808
11
119.329
21
-70.3684
0
LINE
8
BLACK
6
CONTINUOUS
10
119.329
20
-70.3684
11
119.342
21
-70.3551
0
LINE
8
BLACK
6
CONTINUOUS
10
119.342
20
-70.3551
11
119.345
21
-70.3535
0
LINE
8
BLACK
6
CONTINUOUS
10
119.345
20
-70.3535
11
119.348
21
-70.351
0
LINE
8
BLACK
6
CONTINUOUS
10
119.348
20
-70.351
11
119.365
21
-70.344
0
LINE
8
BLACK
6
CONTINUOUS
10
119.365
20
-70.344
11
119.381
21
-70.3359
0
LINE
8
BLACK
6
CONTINUOUS
10
119.381
20
-70.3359
11
119.385
21
-70.3356
0
LINE
8
BLACK
6
CONTINUOUS
10
119.385
20
-70.3356
11
119.388
21
-70.3342
0
LINE
8
BLACK
6
CONTINUOUS
10
119.388
20
-70.3342
11
119.407
21
-70.3334
0
LINE
8
BLACK
6
CONTINUOUS
10
119.407
20
-70.3334
11
119.425
21
-70.3315
0
LINE
8
BLACK
6
CONTINUOUS
10
119.425
20
-70.3315
11
119.429
21
-70.3324
0
LINE
8
BLACK
6
CONTINUOUS
10
119.429
20
-70.3324
11
119.432
21
-70.3322
0
LINE
8
BLACK
6
CONTINUOUS
10
119.432
20
-70.3322
11
119.45
21
-70.3378
0
LINE
8
BLACK
6
CONTINUOUS
10
119.45
20
-70.3378
11
119.468
21
-70.3424
0
LINE
8
BLACK
6
CONTINUOUS
10
119.468
20
-70.3424
11
119.471
21
-70.3444
0
LINE
8
BLACK
6
CONTINUOUS
10
119.471
20
-70.3444
11
119.474
21
-70.3455
0
LINE
8
BLACK
6
CONTINUOUS
10
119.474
20
-70.3455
11
119.489
21
-70.3568
0
LINE
8
BLACK
6
CONTINUOUS
10
119.489
20
-70.3568
11
119.504
21
-70.3672
0
LINE
8
BLACK
6
CONTINUOUS
10
119.504
20
-70.3672
11
119.507
21
-70.3701
0
LINE
8
BLACK
6
CONTINUOUS
10
119.507
20
-70.3701
11
119.509
21
-70.3724
0
LINE
8
BLACK
6
CONTINUOUS
10
119.509
20
-70.3724
11
119.519
21
-70.388
0
LINE
8
BLACK
6
CONTINUOUS
10
119.519
20
-70.388
11
119.53
21
-70.403
0
LINE
8
BLACK
6
CONTINUOUS
10
119.53
20
-70.403
11
119.531
21
-70.4065
0
LINE
8
BLACK
6
CONTINUOUS
10
119.531
20
-70.4065
11
119.533
21
-70.4096
0
LINE
8
BLACK
6
CONTINUOUS
10
119.533
20
-70.4096
11
119.57
21
-70.4974
0
LINE
8
BLACK
6
CONTINUOUS
10
119.57
20
-70.4974
11
119.684
21
-70.6693
0
LINE
8
BLACK
6
CONTINUOUS
10
119.684
20
-70.6693
11
119.831
21
-70.8156
0
LINE
8
BLACK
6
CONTINUOUS
10
119.831
20
-70.8156
11
119.949
21
-70.8944
0
LINE
8
BLACK
6
CONTINUOUS
10
119.949
20
-70.8944
11
119.959
21
-70.904
0
LINE
8
BLACK
6
CONTINUOUS
10
119.959
20
-70.904
11
119.97
21
-70.9122
0
LINE
8
BLACK
6
CONTINUOUS
10
119.97
20
-70.9122
11
119.974
21
-70.9191
0
LINE
8
BLACK
6
CONTINUOUS
10
119.974
20
-70.9191
11
119.98
21
-70.9249
0
LINE
8
BLACK
6
CONTINUOUS
10
119.98
20
-70.9249
11
119.987
21
-70.9373
0
LINE
8
BLACK
6
CONTINUOUS
10
119.987
20
-70.9373
11
119.994
21
-70.9489
0
LINE
8
BLACK
6
CONTINUOUS
10
119.994
20
-70.9489
11
119.996
21
-70.957
0
LINE
8
BLACK
6
CONTINUOUS
10
119.996
20
-70.957
11
120
21
-70.9645
0
LINE
8
BLACK
6
CONTINUOUS
10
120
20
-70.9645
11
120.001
21
-70.9782
0
LINE
8
BLACK
6
CONTINUOUS
10
120.001
20
-70.9782
11
120.005
21
-70.9917
0
LINE
8
BLACK
6
CONTINUOUS
10
120.005
20
-70.9917
11
120.004
21
-71
0
LINE
8
BLACK
6
CONTINUOUS
10
120.004
20
-71
11
120.005
21
-71.0083
0
LINE
8
BLACK
6
CONTINUOUS
10
120.005
20
-71.0083
11
120.001
21
-71.0218
0
LINE
8
BLACK
6
CONTINUOUS
10
120.001
20
-71.0218
11
120
21
-71.0355
0
LINE
8
BLACK
6
CONTINUOUS
10
120
20
-71.0355
11
119.996
21
-71.043
0
LINE
8
BLACK
6
CONTINUOUS
10
119.996
20
-71.043
11
119.994
21
-71.0511
0
LINE
8
BLACK
6
CONTINUOUS
10
119.994
20
-71.0511
11
119.987
21
-71.0627
0
LINE
8
BLACK
6
CONTINUOUS
10
119.987
20
-71.0627
11
119.98
21
-71.0751
0
LINE
8
BLACK
6
CONTINUOUS
10
119.98
20
-71.0751
11
119.974
21
-71.0809
0
LINE
8
BLACK
6
CONTINUOUS
10
119.974
20
-71.0809
11
119.97
21
-71.0878
0
LINE
8
BLACK
6
CONTINUOUS
10
119.97
20
-71.0878
11
119.959
21
-71.096
0
LINE
8
BLACK
6
CONTINUOUS
10
119.959
20
-71.096
11
119.949
21
-71.1056
0
LINE
8
BLACK
6
CONTINUOUS
10
119.949
20
-71.1056
11
119.831
21
-71.1844
0
LINE
8
BLACK
6
CONTINUOUS
10
119.831
20
-71.1844
11
119.684
21
-71.3307
0
LINE
8
BLACK
6
CONTINUOUS
10
119.684
20
-71.3307
11
119.57
21
-71.5026
0
LINE
8
BLACK
6
CONTINUOUS
10
119.57
20
-71.5026
11
119.49
21
-71.6937
0
LINE
8
BLACK
6
CONTINUOUS
10
119.49
20
-71.6937
11
119.45
21
-71.8966
0
LINE
8
BLACK
6
CONTINUOUS
10
119.45
20
-71.8966
11
119.45
21
-72.1034
0
LINE
8
BLACK
6
CONTINUOUS
10
119.45
20
-72.1034
11
119.49
21
-72.3063
0
LINE
8
BLACK
6
CONTINUOUS
10
119.49
20
-72.3063
11
119.57
21
-72.4974
0
LINE
8
BLACK
6
CONTINUOUS
10
119.57
20
-72.4974
11
119.684
21
-72.6693
0
LINE
8
BLACK
6
CONTINUOUS
10
119.684
20
-72.6693
11
119.831
21
-72.8156
0
LINE
8
BLACK
6
CONTINUOUS
10
119.831
20
-72.8156
11
120.003
21
-72.9305
0
LINE
8
BLACK
6
CONTINUOUS
10
120.003
20
-72.9305
11
120.194
21
-73.0096
0
LINE
8
BLACK
6
CONTINUOUS
10
120.194
20
-73.0096
11
120.397
21
-73.05
0
LINE
8
BLACK
6
CONTINUOUS
10
120.397
20
-73.05
11
120.603
21
-73.05
0
LINE
8
BLACK
6
CONTINUOUS
10
120.603
20
-73.05
11
120.806
21
-73.0096
0
LINE
8
BLACK
6
CONTINUOUS
10
120.806
20
-73.0096
11
120.997
21
-72.9305
0
LINE
8
BLACK
6
CONTINUOUS
10
120.997
20
-72.9305
11
121.169
21
-72.8156
0
LINE
8
BLACK
6
CONTINUOUS
10
121.169
20
-72.8156
11
121.316
21
-72.6693
0
LINE
8
BLACK
6
CONTINUOUS
10
121.316
20
-72.6693
11
121.43
21
-72.4974
0
LINE
8
BLACK
6
CONTINUOUS
10
121.43
20
-72.4974
11
121.51
21
-72.3063
0
LINE
8
BLACK
6
CONTINUOUS
10
121.51
20
-72.3063
11
121.55
21
-72.1034
0
LINE
8
BLACK
6
CONTINUOUS
10
121.55
20
-72.1034
11
121.55
21
-71.8966
0
LINE
8
BLACK
6
CONTINUOUS
10
121.55
20
-71.8966
11
121.51
21
-71.6937
0
LINE
8
BLACK
6
CONTINUOUS
10
121.51
20
-71.6937
11
121.43
21
-71.5026
0
LINE
8
BLACK
6
CONTINUOUS
10
121.43
20
-71.5026
11
121.316
21
-71.3307
0
LINE
8
BLACK
6
CONTINUOUS
10
121.316
20
-71.3307
11
121.169
21
-71.1844
0
LINE
8
BLACK
6
CONTINUOUS
10
121.169
20
-71.1844
11
121.051
21
-71.1056
0
LINE
8
BLACK
6
CONTINUOUS
10
121.051
20
-71.1056
11
121.041
21
-71.096
0
LINE
8
BLACK
6
CONTINUOUS
10
121.041
20
-71.096
11
121.03
21
-71.0878
0
LINE
8
BLACK
6
CONTINUOUS
10
121.03
20
-71.0878
11
121.026
21
-71.0809
0
LINE
8
BLACK
6
CONTINUOUS
10
121.026
20
-71.0809
11
121.02
21
-71.0751
0
LINE
8
BLACK
6
CONTINUOUS
10
121.02
20
-71.0751
11
121.013
21
-71.0627
0
LINE
8
BLACK
6
CONTINUOUS
10
121.013
20
-71.0627
11
121.006
21
-71.0511
0
LINE
8
BLACK
6
CONTINUOUS
10
121.006
20
-71.0511
11
121.004
21
-71.043
0
LINE
8
BLACK
6
CONTINUOUS
10
121.004
20
-71.043
11
121
21
-71.0355
0
LINE
8
BLACK
6
CONTINUOUS
10
121
20
-71.0355
11
120.999
21
-71.0218
0
LINE
8
BLACK
6
CONTINUOUS
10
120.999
20
-71.0218
11
120.995
21
-71.0083
0
LINE
8
BLACK
6
CONTINUOUS
10
120.995
20
-71.0083
11
120.996
21
-71
0
LINE
8
BLACK
6
CONTINUOUS
10
120.996
20
-71
11
120.995
21
-70.9917
0
LINE
8
BLACK
6
CONTINUOUS
10
120.995
20
-70.9917
11
120.999
21
-70.9782
0
LINE
8
BLACK
6
CONTINUOUS
10
120.999
20
-70.9782
11
121
21
-70.9645
0
LINE
8
BLACK
6
CONTINUOUS
10
121
20
-70.9645
11
121.004
21
-70.957
0
LINE
8
BLACK
6
CONTINUOUS
10
121.004
20
-70.957
11
121.006
21
-70.9489
0
LINE
8
BLACK
6
CONTINUOUS
10
121.006
20
-70.9489
11
121.013
21
-70.9373
0
LINE
8
BLACK
6
CONTINUOUS
10
121.013
20
-70.9373
11
121.02
21
-70.9249
0
LINE
8
BLACK
6
CONTINUOUS
10
121.02
20
-70.9249
11
121.026
21
-70.9191
0
LINE
8
BLACK
6
CONTINUOUS
10
121.026
20
-70.9191
11
121.03
21
-70.9122
0
LINE
8
BLACK
6
CONTINUOUS
10
121.03
20
-70.9122
11
121.041
21
-70.904
0
LINE
8
BLACK
6
CONTINUOUS
10
121.041
20
-70.904
11
121.051
21
-70.8944
0
LINE
8
BLACK
6
CONTINUOUS
10
121.051
20
-70.8944
11
121.169
21
-70.8156
0
LINE
8
BLACK
6
CONTINUOUS
10
121.169
20
-70.8156
11
121.316
21
-70.6693
0
LINE
8
BLACK
6
CONTINUOUS
10
121.316
20
-70.6693
11
121.43
21
-70.4974
0
LINE
8
BLACK
6
CONTINUOUS
10
121.43
20
-70.4974
11
121.51
21
-70.3063
0
LINE
8
BLACK
6
CONTINUOUS
10
121.51
20
-70.3063
11
121.55
21
-70.1034
0
LINE
8
BLACK
6
CONTINUOUS
10
121.55
20
-70.1034
11
121.55
21
-69.8966
0
LINE
8
BLACK
6
CONTINUOUS
10
121.55
20
-69.8966
11
121.51
21
-69.6937
0
LINE
8
BLACK
6
CONTINUOUS
10
121.51
20
-69.6937
11
121.43
21
-69.5026
0
LINE
8
BLACK
6
CONTINUOUS
10
121.43
20
-69.5026
11
121.316
21
-69.3307
0
LINE
8
BLACK
6
CONTINUOUS
10
121.316
20
-69.3307
11
121.169
21
-69.1844
0
LINE
8
BLACK
6
CONTINUOUS
10
121.169
20
-69.1844
11
120.997
21
-69.0695
0
LINE
8
BLACK
6
CONTINUOUS
10
120.997
20
-69.0695
11
120.806
21
-68.9904
0
LINE
8
BLACK
6
CONTINUOUS
10
120.806
20
-68.9904
11
120.603
21
-68.95
0
LINE
8
BLACK
6
CONTINUOUS
10
120.603
20
-68.95
11
120.397
21
-68.95
0
LINE
8
BLACK
6
CONTINUOUS
10
103.456
20
-69.7784
11
103.362
21
-69.7877
0
LINE
8
BLACK
6
CONTINUOUS
10
103.362
20
-69.7877
11
103.278
21
-69.8134
0
LINE
8
BLACK
6
CONTINUOUS
10
103.278
20
-69.8134
11
103.2
21
-69.8551
0
LINE
8
BLACK
6
CONTINUOUS
10
103.2
20
-69.8551
11
103.131
21
-69.9112
0
LINE
8
BLACK
6
CONTINUOUS
10
103.131
20
-69.9112
11
103.075
21
-69.9795
0
LINE
8
BLACK
6
CONTINUOUS
10
103.075
20
-69.9795
11
103.033
21
-70.0575
0
LINE
8
BLACK
6
CONTINUOUS
10
103.033
20
-70.0575
11
103.008
21
-70.1422
0
LINE
8
BLACK
6
CONTINUOUS
10
103.008
20
-70.1422
11
102.998
21
-70.2364
0
LINE
8
BLACK
6
CONTINUOUS
10
102.998
20
-70.2364
11
102.998
21
-71.5236
0
LINE
8
BLACK
6
CONTINUOUS
10
102.998
20
-71.5236
11
103.008
21
-71.6178
0
LINE
8
BLACK
6
CONTINUOUS
10
103.008
20
-71.6178
11
103.033
21
-71.7025
0
LINE
8
BLACK
6
CONTINUOUS
10
103.033
20
-71.7025
11
103.075
21
-71.7805
0
LINE
8
BLACK
6
CONTINUOUS
10
103.075
20
-71.7805
11
103.131
21
-71.8488
0
LINE
8
BLACK
6
CONTINUOUS
10
103.131
20
-71.8488
11
103.2
21
-71.9049
0
LINE
8
BLACK
6
CONTINUOUS
10
103.2
20
-71.9049
11
103.278
21
-71.9466
0
LINE
8
BLACK
6
CONTINUOUS
10
103.278
20
-71.9466
11
103.362
21
-71.9723
0
LINE
8
BLACK
6
CONTINUOUS
10
103.362
20
-71.9723
11
103.456
21
-71.9816
0
LINE
8
BLACK
6
CONTINUOUS
10
103.456
20
-71.9816
11
106.544
21
-71.9816
0
LINE
8
BLACK
6
CONTINUOUS
10
106.544
20
-71.9816
11
106.638
21
-71.9723
0
LINE
8
BLACK
6
CONTINUOUS
10
106.638
20
-71.9723
11
106.722
21
-71.9466
0
LINE
8
BLACK
6
CONTINUOUS
10
106.722
20
-71.9466
11
106.8
21
-71.9049
0
LINE
8
BLACK
6
CONTINUOUS
10
106.8
20
-71.9049
11
106.869
21
-71.8488
0
LINE
8
BLACK
6
CONTINUOUS
10
106.869
20
-71.8488
11
106.925
21
-71.7805
0
LINE
8
BLACK
6
CONTINUOUS
10
106.925
20
-71.7805
11
106.967
21
-71.7025
0
LINE
8
BLACK
6
CONTINUOUS
10
106.967
20
-71.7025
11
106.992
21
-71.6178
0
LINE
8
BLACK
6
CONTINUOUS
10
106.992
20
-71.6178
11
107.002
21
-71.5236
0
LINE
8
BLACK
6
CONTINUOUS
10
107.002
20
-71.5236
11
107.002
21
-70.2364
0
LINE
8
BLACK
6
CONTINUOUS
10
107.002
20
-70.2364
11
106.992
21
-70.1422
0
LINE
8
BLACK
6
CONTINUOUS
10
106.992
20
-70.1422
11
106.981
21
-70.1054
0
LINE
8
BLACK
6
CONTINUOUS
10
106.981
20
-70.1054
11
106.981
21
-70.1054
0
LINE
8
BLACK
6
CONTINUOUS
10
106.981
20
-70.1054
11
106.967
21
-70.0575
0
LINE
8
BLACK
6
CONTINUOUS
10
106.967
20
-70.0575
11
106.925
21
-69.9795
0
LINE
8
BLACK
6
CONTINUOUS
10
106.925
20
-69.9795
11
106.869
21
-69.9112
0
LINE
8
BLACK
6
CONTINUOUS
10
106.869
20
-69.9112
11
106.8
21
-69.8551
0
LINE
8
BLACK
6
CONTINUOUS
10
106.8
20
-69.8551
11
106.722
21
-69.8134
0
LINE
8
BLACK
6
CONTINUOUS
10
106.722
20
-69.8134
11
106.638
21
-69.7877
0
LINE
8
BLACK
6
CONTINUOUS
10
106.638
20
-69.7877
11
106.544
21
-69.7784
0
LINE
8
BLACK
6
CONTINUOUS
10
106.544
20
-69.7784
11
103.456
21
-69.7784
0
LINE
8
BLACK
6
CONTINUOUS
10
113.838
20
-68.9598
11
113.23
21
-69.067
0
LINE
8
BLACK
6
CONTINUOUS
10
113.23
20
-69.067
11
112.622
21
-68.9598
0
LINE
8
BLACK
6
CONTINUOUS
10
112.622
20
-68.9598
11
112.177
21
-68.7026
0
LINE
8
BLACK
6
CONTINUOUS
10
112.177
20
-68.7026
11
111.897
21
-68.9822
0
LINE
8
BLACK
6
CONTINUOUS
10
111.897
20
-68.9822
11
112.019
21
-69.2058
0
LINE
8
BLACK
6
CONTINUOUS
10
112.019
20
-69.2058
11
112.391
21
-69.398
0
LINE
8
BLACK
6
CONTINUOUS
10
112.391
20
-69.398
11
112.818
21
-69.5212
0
LINE
8
BLACK
6
CONTINUOUS
10
112.818
20
-69.5212
11
113.261
21
-69.5587
0
LINE
8
BLACK
6
CONTINUOUS
10
113.261
20
-69.5587
11
113.703
21
-69.509
0
LINE
8
BLACK
6
CONTINUOUS
10
113.703
20
-69.509
11
114.128
21
-69.3738
0
LINE
8
BLACK
6
CONTINUOUS
10
114.128
20
-69.3738
11
114.441
21
-69.2066
0
LINE
8
BLACK
6
CONTINUOUS
10
114.441
20
-69.2066
11
114.563
21
-68.9822
0
LINE
8
BLACK
6
CONTINUOUS
10
114.563
20
-68.9822
11
114.283
21
-68.7026
0
LINE
8
BLACK
6
CONTINUOUS
10
114.283
20
-68.7026
11
113.838
21
-68.9598
0
LINE
8
BLACK
6
CONTINUOUS
10
125.878
20
-68.9598
11
125.27
21
-69.067
0
LINE
8
BLACK
6
CONTINUOUS
10
125.27
20
-69.067
11
124.662
21
-68.9598
0
LINE
8
BLACK
6
CONTINUOUS
10
124.662
20
-68.9598
11
124.217
21
-68.7026
0
LINE
8
BLACK
6
CONTINUOUS
10
124.217
20
-68.7026
11
123.937
21
-68.9822
0
LINE
8
BLACK
6
CONTINUOUS
10
123.937
20
-68.9822
11
124.059
21
-69.2058
0
LINE
8
BLACK
6
CONTINUOUS
10
124.059
20
-69.2058
11
124.431
21
-69.398
0
LINE
8
BLACK
6
CONTINUOUS
10
124.431
20
-69.398
11
124.858
21
-69.5212
0
LINE
8
BLACK
6
CONTINUOUS
10
124.858
20
-69.5212
11
125.301
21
-69.5587
0
LINE
8
BLACK
6
CONTINUOUS
10
125.301
20
-69.5587
11
125.743
21
-69.509
0
LINE
8
BLACK
6
CONTINUOUS
10
125.743
20
-69.509
11
126.168
21
-69.3738
0
LINE
8
BLACK
6
CONTINUOUS
10
126.168
20
-69.3738
11
126.481
21
-69.2066
0
LINE
8
BLACK
6
CONTINUOUS
10
126.481
20
-69.2066
11
126.603
21
-68.9822
0
LINE
8
BLACK
6
CONTINUOUS
10
126.603
20
-68.9822
11
126.323
21
-68.7026
0
LINE
8
BLACK
6
CONTINUOUS
10
126.323
20
-68.7026
11
125.878
21
-68.9598
0
LINE
8
BLACK
6
CONTINUOUS
10
117.673
20
-68.6753
11
117.418
21
-68.7656
0
LINE
8
BLACK
6
CONTINUOUS
10
117.418
20
-68.7656
11
117.335
21
-68.81
0
LINE
8
BLACK
6
CONTINUOUS
10
117.335
20
-68.81
11
117.295
21
-68.9361
0
LINE
8
BLACK
6
CONTINUOUS
10
117.295
20
-68.9361
11
117.605
21
-69.2463
0
LINE
8
BLACK
6
CONTINUOUS
10
117.605
20
-69.2463
11
117.705
21
-69.1889
0
LINE
8
BLACK
6
CONTINUOUS
10
117.705
20
-69.1889
11
118
21
-69.1369
0
LINE
8
BLACK
6
CONTINUOUS
10
118
20
-69.1369
11
118.295
21
-69.1889
0
LINE
8
BLACK
6
CONTINUOUS
10
118.295
20
-69.1889
11
118.395
21
-69.2463
0
LINE
8
BLACK
6
CONTINUOUS
10
118.395
20
-69.2463
11
118.705
21
-68.9361
0
LINE
8
BLACK
6
CONTINUOUS
10
118.705
20
-68.9361
11
118.666
21
-68.8133
0
LINE
8
BLACK
6
CONTINUOUS
10
118.666
20
-68.8133
11
118.464
21
-68.7166
0
LINE
8
BLACK
6
CONTINUOUS
10
118.464
20
-68.7166
11
118.204
21
-68.6508
0
LINE
8
BLACK
6
CONTINUOUS
10
118.204
20
-68.6508
11
117.937
21
-68.6369
0
LINE
8
BLACK
6
CONTINUOUS
10
117.937
20
-68.6369
11
117.673
21
-68.6753
0
LINE
8
BLACK
6
CONTINUOUS
10
111.314
20
-66.0789
11
111.122
21
-66.4506
0
LINE
8
BLACK
6
CONTINUOUS
10
111.122
20
-66.4506
11
110.999
21
-66.878
0
LINE
8
BLACK
6
CONTINUOUS
10
110.999
20
-66.878
11
110.961
21
-67.3212
0
LINE
8
BLACK
6
CONTINUOUS
10
110.961
20
-67.3212
11
111.011
21
-67.7632
0
LINE
8
BLACK
6
CONTINUOUS
10
111.011
20
-67.7632
11
111.146
21
-68.1879
0
LINE
8
BLACK
6
CONTINUOUS
10
111.146
20
-68.1879
11
111.313
21
-68.5006
0
LINE
8
BLACK
6
CONTINUOUS
10
111.313
20
-68.5006
11
111.538
21
-68.623
0
LINE
8
BLACK
6
CONTINUOUS
10
111.538
20
-68.623
11
111.824
21
-68.3368
0
LINE
8
BLACK
6
CONTINUOUS
10
111.824
20
-68.3368
11
111.691
21
-68.1785
0
LINE
8
BLACK
6
CONTINUOUS
10
111.691
20
-68.1785
11
111.48
21
-67.5986
0
LINE
8
BLACK
6
CONTINUOUS
10
111.48
20
-67.5986
11
111.48
21
-66.9814
0
LINE
8
BLACK
6
CONTINUOUS
10
111.48
20
-66.9814
11
111.691
21
-66.4015
0
LINE
8
BLACK
6
CONTINUOUS
10
111.691
20
-66.4015
11
111.824
21
-66.2432
0
LINE
8
BLACK
6
CONTINUOUS
10
111.824
20
-66.2432
11
111.538
21
-65.957
0
LINE
8
BLACK
6
CONTINUOUS
10
111.538
20
-65.957
11
111.314
21
-66.0789
0
LINE
8
BLACK
6
CONTINUOUS
10
115.499
20
-67.2588
11
115.449
21
-66.8168
0
LINE
8
BLACK
6
CONTINUOUS
10
115.449
20
-66.8168
11
115.314
21
-66.3921
0
LINE
8
BLACK
6
CONTINUOUS
10
115.314
20
-66.3921
11
115.147
21
-66.0794
0
LINE
8
BLACK
6
CONTINUOUS
10
115.147
20
-66.0794
11
114.922
21
-65.957
0
LINE
8
BLACK
6
CONTINUOUS
10
114.922
20
-65.957
11
114.636
21
-66.2432
0
LINE
8
BLACK
6
CONTINUOUS
10
114.636
20
-66.2432
11
114.769
21
-66.4015
0
LINE
8
BLACK
6
CONTINUOUS
10
114.769
20
-66.4015
11
114.98
21
-66.9814
0
LINE
8
BLACK
6
CONTINUOUS
10
114.98
20
-66.9814
11
114.98
21
-67.5986
0
LINE
8
BLACK
6
CONTINUOUS
10
114.98
20
-67.5986
11
114.769
21
-68.1785
0
LINE
8
BLACK
6
CONTINUOUS
10
114.769
20
-68.1785
11
114.636
21
-68.3368
0
LINE
8
BLACK
6
CONTINUOUS
10
114.636
20
-68.3368
11
114.922
21
-68.623
0
LINE
8
BLACK
6
CONTINUOUS
10
114.922
20
-68.623
11
115.146
21
-68.5011
0
LINE
8
BLACK
6
CONTINUOUS
10
115.146
20
-68.5011
11
115.338
21
-68.1294
0
LINE
8
BLACK
6
CONTINUOUS
10
115.338
20
-68.1294
11
115.461
21
-67.702
0
LINE
8
BLACK
6
CONTINUOUS
10
115.461
20
-67.702
11
115.494
21
-67.3122
0
LINE
8
BLACK
6
CONTINUOUS
10
115.494
20
-67.3122
11
115.494
21
-67.3122
0
LINE
8
BLACK
6
CONTINUOUS
10
115.494
20
-67.3122
11
115.499
21
-67.2588
0
LINE
8
BLACK
6
CONTINUOUS
10
123.354
20
-66.0789
11
123.162
21
-66.4506
0
LINE
8
BLACK
6
CONTINUOUS
10
123.162
20
-66.4506
11
123.039
21
-66.878
0
LINE
8
BLACK
6
CONTINUOUS
10
123.039
20
-66.878
11
123.001
21
-67.3212
0
LINE
8
BLACK
6
CONTINUOUS
10
123.001
20
-67.3212
11
123.051
21
-67.7632
0
LINE
8
BLACK
6
CONTINUOUS
10
123.051
20
-67.7632
11
123.186
21
-68.1879
0
LINE
8
BLACK
6
CONTINUOUS
10
123.186
20
-68.1879
11
123.353
21
-68.5006
0
LINE
8
BLACK
6
CONTINUOUS
10
123.353
20
-68.5006
11
123.578
21
-68.623
0
LINE
8
BLACK
6
CONTINUOUS
10
123.578
20
-68.623
11
123.864
21
-68.3368
0
LINE
8
BLACK
6
CONTINUOUS
10
123.864
20
-68.3368
11
123.731
21
-68.1785
0
LINE
8
BLACK
6
CONTINUOUS
10
123.731
20
-68.1785
11
123.52
21
-67.5986
0
LINE
8
BLACK
6
CONTINUOUS
10
123.52
20
-67.5986
11
123.52
21
-66.9814
0
LINE
8
BLACK
6
CONTINUOUS
10
123.52
20
-66.9814
11
123.731
21
-66.4015
0
LINE
8
BLACK
6
CONTINUOUS
10
123.731
20
-66.4015
11
123.864
21
-66.2432
0
LINE
8
BLACK
6
CONTINUOUS
10
123.864
20
-66.2432
11
123.578
21
-65.957
0
LINE
8
BLACK
6
CONTINUOUS
10
123.578
20
-65.957
11
123.354
21
-66.0789
0
LINE
8
BLACK
6
CONTINUOUS
10
126.676
20
-66.2432
11
126.809
21
-66.4015
0
LINE
8
BLACK
6
CONTINUOUS
10
126.809
20
-66.4015
11
127.02
21
-66.9814
0
LINE
8
BLACK
6
CONTINUOUS
10
127.02
20
-66.9814
11
127.02
21
-67.5986
0
LINE
8
BLACK
6
CONTINUOUS
10
127.02
20
-67.5986
11
126.809
21
-68.1785
0
LINE
8
BLACK
6
CONTINUOUS
10
126.809
20
-68.1785
11
126.676
21
-68.3368
0
LINE
8
BLACK
6
CONTINUOUS
10
126.676
20
-68.3368
11
126.962
21
-68.623
0
LINE
8
BLACK
6
CONTINUOUS
10
126.962
20
-68.623
11
127.186
21
-68.5011
0
LINE
8
BLACK
6
CONTINUOUS
10
127.186
20
-68.5011
11
127.378
21
-68.1294
0
LINE
8
BLACK
6
CONTINUOUS
10
127.378
20
-68.1294
11
127.501
21
-67.702
0
LINE
8
BLACK
6
CONTINUOUS
10
127.501
20
-67.702
11
127.539
21
-67.2588
0
LINE
8
BLACK
6
CONTINUOUS
10
127.539
20
-67.2588
11
127.489
21
-66.8168
0
LINE
8
BLACK
6
CONTINUOUS
10
127.489
20
-66.8168
11
127.354
21
-66.3921
0
LINE
8
BLACK
6
CONTINUOUS
10
127.354
20
-66.3921
11
127.187
21
-66.0794
0
LINE
8
BLACK
6
CONTINUOUS
10
127.187
20
-66.0794
11
126.962
21
-65.957
0
LINE
8
BLACK
6
CONTINUOUS
10
126.962
20
-65.957
11
126.676
21
-66.2432
0
LINE
8
BLACK
6
CONTINUOUS
10
112.757
20
-65.071
11
112.332
21
-65.2062
0
LINE
8
BLACK
6
CONTINUOUS
10
112.332
20
-65.2062
11
112.019
21
-65.3734
0
LINE
8
BLACK
6
CONTINUOUS
10
112.019
20
-65.3734
11
111.897
21
-65.5978
0
LINE
8
BLACK
6
CONTINUOUS
10
111.897
20
-65.5978
11
112.177
21
-65.8774
0
LINE
8
BLACK
6
CONTINUOUS
10
112.177
20
-65.8774
11
112.622
21
-65.6202
0
LINE
8
BLACK
6
CONTINUOUS
10
112.622
20
-65.6202
11
113.23
21
-65.513
0
LINE
8
BLACK
6
CONTINUOUS
10
113.23
20
-65.513
11
113.838
21
-65.6202
0
LINE
8
BLACK
6
CONTINUOUS
10
113.838
20
-65.6202
11
114.283
21
-65.8774
0
LINE
8
BLACK
6
CONTINUOUS
10
114.283
20
-65.8774
11
114.563
21
-65.5978
0
LINE
8
BLACK
6
CONTINUOUS
10
114.563
20
-65.5978
11
114.441
21
-65.3742
0
LINE
8
BLACK
6
CONTINUOUS
10
114.441
20
-65.3742
11
114.069
21
-65.182
0
LINE
8
BLACK
6
CONTINUOUS
10
114.069
20
-65.182
11
113.642
21
-65.0588
0
LINE
8
BLACK
6
CONTINUOUS
10
113.642
20
-65.0588
11
113.199
21
-65.0213
0
LINE
8
BLACK
6
CONTINUOUS
10
113.199
20
-65.0213
11
112.757
21
-65.071
0
LINE
8
BLACK
6
CONTINUOUS
10
124.797
20
-65.071
11
124.372
21
-65.2062
0
LINE
8
BLACK
6
CONTINUOUS
10
124.372
20
-65.2062
11
124.059
21
-65.3734
0
LINE
8
BLACK
6
CONTINUOUS
10
124.059
20
-65.3734
11
123.937
21
-65.5978
0
LINE
8
BLACK
6
CONTINUOUS
10
123.937
20
-65.5978
11
124.217
21
-65.8774
0
LINE
8
BLACK
6
CONTINUOUS
10
124.217
20
-65.8774
11
124.662
21
-65.6202
0
LINE
8
BLACK
6
CONTINUOUS
10
124.662
20
-65.6202
11
125.27
21
-65.513
0
LINE
8
BLACK
6
CONTINUOUS
10
125.27
20
-65.513
11
125.878
21
-65.6202
0
LINE
8
BLACK
6
CONTINUOUS
10
125.878
20
-65.6202
11
126.323
21
-65.8774
0
LINE
8
BLACK
6
CONTINUOUS
10
126.323
20
-65.8774
11
126.603
21
-65.5978
0
LINE
8
BLACK
6
CONTINUOUS
10
126.603
20
-65.5978
11
126.481
21
-65.3742
0
LINE
8
BLACK
6
CONTINUOUS
10
126.481
20
-65.3742
11
126.109
21
-65.182
0
LINE
8
BLACK
6
CONTINUOUS
10
126.109
20
-65.182
11
125.682
21
-65.0588
0
LINE
8
BLACK
6
CONTINUOUS
10
125.682
20
-65.0588
11
125.239
21
-65.0213
0
LINE
8
BLACK
6
CONTINUOUS
10
125.239
20
-65.0213
11
124.797
21
-65.071
0
LINE
8
BLACK
6
CONTINUOUS
10
103.146
20
-63.35
11
103.04
21
-63.3711
0
LINE
8
BLACK
6
CONTINUOUS
10
103.04
20
-63.3711
11
102.939
21
-63.4126
0
LINE
8
BLACK
6
CONTINUOUS
10
102.939
20
-63.4126
11
102.849
21
-63.4728
0
LINE
8
BLACK
6
CONTINUOUS
10
102.849
20
-63.4728
11
102.773
21
-63.5494
0
LINE
8
BLACK
6
CONTINUOUS
10
102.773
20
-63.5494
11
102.713
21
-63.6395
0
LINE
8
BLACK
6
CONTINUOUS
10
102.713
20
-63.6395
11
102.671
21
-63.7396
0
LINE
8
BLACK
6
CONTINUOUS
10
102.671
20
-63.7396
11
102.65
21
-63.8458
0
LINE
8
BLACK
6
CONTINUOUS
10
102.65
20
-63.8458
11
102.65
21
-63.9542
0
LINE
8
BLACK
6
CONTINUOUS
10
102.65
20
-63.9542
11
102.671
21
-64.0604
0
LINE
8
BLACK
6
CONTINUOUS
10
102.671
20
-64.0604
11
102.713
21
-64.1605
0
LINE
8
BLACK
6
CONTINUOUS
10
102.713
20
-64.1605
11
102.773
21
-64.2506
0
LINE
8
BLACK
6
CONTINUOUS
10
102.773
20
-64.2506
11
102.849
21
-64.3272
0
LINE
8
BLACK
6
CONTINUOUS
10
102.849
20
-64.3272
11
102.939
21
-64.3874
0
LINE
8
BLACK
6
CONTINUOUS
10
102.939
20
-64.3874
11
103.04
21
-64.4289
0
LINE
8
BLACK
6
CONTINUOUS
10
103.04
20
-64.4289
11
103.146
21
-64.45
0
LINE
8
BLACK
6
CONTINUOUS
10
103.146
20
-64.45
11
103.254
21
-64.45
0
LINE
8
BLACK
6
CONTINUOUS
10
103.254
20
-64.45
11
103.36
21
-64.4289
0
LINE
8
BLACK
6
CONTINUOUS
10
103.36
20
-64.4289
11
103.461
21
-64.3874
0
LINE
8
BLACK
6
CONTINUOUS
10
103.461
20
-64.3874
11
103.551
21
-64.3272
0
LINE
8
BLACK
6
CONTINUOUS
10
103.551
20
-64.3272
11
103.636
21
-64.2418
0
LINE
8
BLACK
6
CONTINUOUS
10
103.636
20
-64.2418
11
103.639
21
-64.2399
0
LINE
8
BLACK
6
CONTINUOUS
10
103.639
20
-64.2399
11
103.647
21
-64.2297
0
LINE
8
BLACK
6
CONTINUOUS
10
103.647
20
-64.2297
11
103.651
21
-64.2276
0
LINE
8
BLACK
6
CONTINUOUS
10
103.651
20
-64.2276
11
103.654
21
-64.2246
0
LINE
8
BLACK
6
CONTINUOUS
10
103.654
20
-64.2246
11
103.67
21
-64.2166
0
LINE
8
BLACK
6
CONTINUOUS
10
103.67
20
-64.2166
11
103.685
21
-64.2077
0
LINE
8
BLACK
6
CONTINUOUS
10
103.685
20
-64.2077
11
103.69
21
-64.2069
0
LINE
8
BLACK
6
CONTINUOUS
10
103.69
20
-64.2069
11
103.693
21
-64.2051
0
LINE
8
BLACK
6
CONTINUOUS
10
103.693
20
-64.2051
11
103.711
21
-64.2031
0
LINE
8
BLACK
6
CONTINUOUS
10
103.711
20
-64.2031
11
103.729
21
-64.2
0
LINE
8
BLACK
6
CONTINUOUS
10
103.729
20
-64.2
11
106.582
21
-64.2
0
LINE
8
BLACK
6
CONTINUOUS
10
106.582
20
-64.2
11
106.59
21
-64.2014
0
LINE
8
BLACK
6
CONTINUOUS
10
106.59
20
-64.2014
11
106.599
21
-64.2011
0
LINE
8
BLACK
6
CONTINUOUS
10
106.599
20
-64.2011
11
106.612
21
-64.2052
0
LINE
8
BLACK
6
CONTINUOUS
10
106.612
20
-64.2052
11
106.625
21
-64.2077
0
LINE
8
BLACK
6
CONTINUOUS
10
106.625
20
-64.2077
11
106.633
21
-64.2118
0
LINE
8
BLACK
6
CONTINUOUS
10
106.633
20
-64.2118
11
106.641
21
-64.2143
0
LINE
8
BLACK
6
CONTINUOUS
10
106.641
20
-64.2143
11
106.652
21
-64.2228
0
LINE
8
BLACK
6
CONTINUOUS
10
106.652
20
-64.2228
11
106.664
21
-64.2297
0
LINE
8
BLACK
6
CONTINUOUS
10
106.664
20
-64.2297
11
106.669
21
-64.2361
0
LINE
8
BLACK
6
CONTINUOUS
10
106.669
20
-64.2361
11
106.676
21
-64.2412
0
LINE
8
BLACK
6
CONTINUOUS
10
106.676
20
-64.2412
11
106.683
21
-64.2529
0
LINE
8
BLACK
6
CONTINUOUS
10
106.683
20
-64.2529
11
106.692
21
-64.2635
0
LINE
8
BLACK
6
CONTINUOUS
10
106.692
20
-64.2635
11
106.695
21
-64.2713
0
LINE
8
BLACK
6
CONTINUOUS
10
106.695
20
-64.2713
11
106.699
21
-64.2784
0
LINE
8
BLACK
6
CONTINUOUS
10
106.699
20
-64.2784
11
106.713
21
-64.3105
0
LINE
8
BLACK
6
CONTINUOUS
10
106.713
20
-64.3105
11
106.773
21
-64.4006
0
LINE
8
BLACK
6
CONTINUOUS
10
106.773
20
-64.4006
11
106.849
21
-64.4772
0
LINE
8
BLACK
6
CONTINUOUS
10
106.849
20
-64.4772
11
106.939
21
-64.5374
0
LINE
8
BLACK
6
CONTINUOUS
10
106.939
20
-64.5374
11
107.04
21
-64.5789
0
LINE
8
BLACK
6
CONTINUOUS
10
107.04
20
-64.5789
11
107.146
21
-64.6
0
LINE
8
BLACK
6
CONTINUOUS
10
107.146
20
-64.6
11
107.254
21
-64.6
0
LINE
8
BLACK
6
CONTINUOUS
10
107.254
20
-64.6
11
107.36
21
-64.5789
0
LINE
8
BLACK
6
CONTINUOUS
10
107.36
20
-64.5789
11
107.461
21
-64.5374
0
LINE
8
BLACK
6
CONTINUOUS
10
107.461
20
-64.5374
11
107.551
21
-64.4772
0
LINE
8
BLACK
6
CONTINUOUS
10
107.551
20
-64.4772
11
107.627
21
-64.4006
0
LINE
8
BLACK
6
CONTINUOUS
10
107.627
20
-64.4006
11
107.687
21
-64.3105
0
LINE
8
BLACK
6
CONTINUOUS
10
107.687
20
-64.3105
11
107.729
21
-64.2104
0
LINE
8
BLACK
6
CONTINUOUS
10
107.729
20
-64.2104
11
107.75
21
-64.1042
0
LINE
8
BLACK
6
CONTINUOUS
10
107.75
20
-64.1042
11
107.75
21
-63.9958
0
LINE
8
BLACK
6
CONTINUOUS
10
107.75
20
-63.9958
11
107.729
21
-63.8896
0
LINE
8
BLACK
6
CONTINUOUS
10
107.729
20
-63.8896
11
107.687
21
-63.7895
0
LINE
8
BLACK
6
CONTINUOUS
10
107.687
20
-63.7895
11
107.627
21
-63.6994
0
LINE
8
BLACK
6
CONTINUOUS
10
107.627
20
-63.6994
11
107.551
21
-63.6228
0
LINE
8
BLACK
6
CONTINUOUS
10
107.551
20
-63.6228
11
107.461
21
-63.5626
0
LINE
8
BLACK
6
CONTINUOUS
10
107.461
20
-63.5626
11
107.36
21
-63.5211
0
LINE
8
BLACK
6
CONTINUOUS
10
107.36
20
-63.5211
11
107.254
21
-63.5
0
LINE
8
BLACK
6
CONTINUOUS
10
107.254
20
-63.5
11
107.146
21
-63.5
0
LINE
8
BLACK
6
CONTINUOUS
10
107.146
20
-63.5
11
107.04
21
-63.5211
0
LINE
8
BLACK
6
CONTINUOUS
10
107.04
20
-63.5211
11
106.939
21
-63.5626
0
LINE
8
BLACK
6
CONTINUOUS
10
106.939
20
-63.5626
11
106.916
21
-63.5786
0
LINE
8
BLACK
6
CONTINUOUS
10
106.916
20
-63.5786
11
106.902
21
-63.5847
0
LINE
8
BLACK
6
CONTINUOUS
10
106.902
20
-63.5847
11
106.888
21
-63.5923
0
LINE
8
BLACK
6
CONTINUOUS
10
106.888
20
-63.5923
11
106.882
21
-63.5935
0
LINE
8
BLACK
6
CONTINUOUS
10
106.882
20
-63.5935
11
106.875
21
-63.5964
0
LINE
8
BLACK
6
CONTINUOUS
10
106.875
20
-63.5964
11
106.86
21
-63.5974
0
LINE
8
BLACK
6
CONTINUOUS
10
106.86
20
-63.5974
11
106.845
21
-63.6
0
LINE
8
BLACK
6
CONTINUOUS
10
106.845
20
-63.6
11
103.729
21
-63.6
0
LINE
8
BLACK
6
CONTINUOUS
10
103.729
20
-63.6
11
103.711
21
-63.5969
0
LINE
8
BLACK
6
CONTINUOUS
10
103.711
20
-63.5969
11
103.693
21
-63.5949
0
LINE
8
BLACK
6
CONTINUOUS
10
103.693
20
-63.5949
11
103.69
21
-63.5931
0
LINE
8
BLACK
6
CONTINUOUS
10
103.69
20
-63.5931
11
103.685
21
-63.5923
0
LINE
8
BLACK
6
CONTINUOUS
10
103.685
20
-63.5923
11
103.67
21
-63.5834
0
LINE
8
BLACK
6
CONTINUOUS
10
103.67
20
-63.5834
11
103.654
21
-63.5754
0
LINE
8
BLACK
6
CONTINUOUS
10
103.654
20
-63.5754
11
103.651
21
-63.5724
0
LINE
8
BLACK
6
CONTINUOUS
10
103.651
20
-63.5724
11
103.647
21
-63.5703
0
LINE
8
BLACK
6
CONTINUOUS
10
103.647
20
-63.5703
11
103.639
21
-63.5601
0
LINE
8
BLACK
6
CONTINUOUS
10
103.639
20
-63.5601
11
103.636
21
-63.5582
0
LINE
8
BLACK
6
CONTINUOUS
10
103.636
20
-63.5582
11
103.551
21
-63.4728
0
LINE
8
BLACK
6
CONTINUOUS
10
103.551
20
-63.4728
11
103.461
21
-63.4126
0
LINE
8
BLACK
6
CONTINUOUS
10
103.461
20
-63.4126
11
103.36
21
-63.3711
0
LINE
8
BLACK
6
CONTINUOUS
10
103.36
20
-63.3711
11
103.254
21
-63.35
0
LINE
8
BLACK
6
CONTINUOUS
10
103.254
20
-63.35
11
103.146
21
-63.35
0
LINE
8
BLACK
6
CONTINUOUS
10
103.868
20
-62.3855
11
103
21
-62.5386
0
LINE
8
BLACK
6
CONTINUOUS
10
103
20
-62.5386
11
102.132
21
-62.3855
0
LINE
8
BLACK
6
CONTINUOUS
10
102.132
20
-62.3855
11
101.398
21
-61.9616
0
LINE
8
BLACK
6
CONTINUOUS
10
101.398
20
-61.9616
11
101.14
21
-62.2196
0
LINE
8
BLACK
6
CONTINUOUS
10
101.14
20
-62.2196
11
101.341
21
-62.5242
0
LINE
8
BLACK
6
CONTINUOUS
10
101.341
20
-62.5242
11
101.846
21
-62.7937
0
LINE
8
BLACK
6
CONTINUOUS
10
101.846
20
-62.7937
11
102.413
21
-62.9651
0
LINE
8
BLACK
6
CONTINUOUS
10
102.413
20
-62.9651
11
103.003
21
-63.0226
0
LINE
8
BLACK
6
CONTINUOUS
10
103.003
20
-63.0226
11
103.593
21
-62.9639
0
LINE
8
BLACK
6
CONTINUOUS
10
103.593
20
-62.9639
11
104.16
21
-62.7912
0
LINE
8
BLACK
6
CONTINUOUS
10
104.16
20
-62.7912
11
104.659
21
-62.5243
0
LINE
8
BLACK
6
CONTINUOUS
10
104.659
20
-62.5243
11
104.86
21
-62.2196
0
LINE
8
BLACK
6
CONTINUOUS
10
104.86
20
-62.2196
11
104.602
21
-61.9616
0
LINE
8
BLACK
6
CONTINUOUS
10
104.602
20
-61.9616
11
103.868
21
-62.3855
0
LINE
8
BLACK
6
CONTINUOUS
10
167.868
20
-62.3855
11
167
21
-62.5386
0
LINE
8
BLACK
6
CONTINUOUS
10
167
20
-62.5386
11
166.132
21
-62.3855
0
LINE
8
BLACK
6
CONTINUOUS
10
166.132
20
-62.3855
11
165.398
21
-61.9616
0
LINE
8
BLACK
6
CONTINUOUS
10
165.398
20
-61.9616
11
165.14
21
-62.2196
0
LINE
8
BLACK
6
CONTINUOUS
10
165.14
20
-62.2196
11
165.341
21
-62.5242
0
LINE
8
BLACK
6
CONTINUOUS
10
165.341
20
-62.5242
11
165.846
21
-62.7937
0
LINE
8
BLACK
6
CONTINUOUS
10
165.846
20
-62.7937
11
166.413
21
-62.9651
0
LINE
8
BLACK
6
CONTINUOUS
10
166.413
20
-62.9651
11
167.003
21
-63.0226
0
LINE
8
BLACK
6
CONTINUOUS
10
167.003
20
-63.0226
11
167.593
21
-62.9639
0
LINE
8
BLACK
6
CONTINUOUS
10
167.593
20
-62.9639
11
168.16
21
-62.7912
0
LINE
8
BLACK
6
CONTINUOUS
10
168.16
20
-62.7912
11
168.659
21
-62.5243
0
LINE
8
BLACK
6
CONTINUOUS
10
168.659
20
-62.5243
11
168.86
21
-62.2196
0
LINE
8
BLACK
6
CONTINUOUS
10
168.86
20
-62.2196
11
168.602
21
-61.9616
0
LINE
8
BLACK
6
CONTINUOUS
10
168.602
20
-61.9616
11
167.868
21
-62.3855
0
LINE
8
BLACK
6
CONTINUOUS
10
104.938
20
-58.4208
11
105.198
21
-58.7307
0
LINE
8
BLACK
6
CONTINUOUS
10
105.198
20
-58.7307
11
105.5
21
-59.5592
0
LINE
8
BLACK
6
CONTINUOUS
10
105.5
20
-59.5592
11
105.5
21
-60.4408
0
LINE
8
BLACK
6
CONTINUOUS
10
105.5
20
-60.4408
11
105.198
21
-61.2693
0
LINE
8
BLACK
6
CONTINUOUS
10
105.198
20
-61.2693
11
104.938
21
-61.5792
0
LINE
8
BLACK
6
CONTINUOUS
10
104.938
20
-61.5792
11
105.22
21
-61.8604
0
LINE
8
BLACK
6
CONTINUOUS
10
105.22
20
-61.8604
11
105.524
21
-61.6592
0
LINE
8
BLACK
6
CONTINUOUS
10
105.524
20
-61.6592
11
105.794
21
-61.1537
0
LINE
8
BLACK
6
CONTINUOUS
10
105.794
20
-61.1537
11
105.871
21
-60.8966
0
LINE
8
BLACK
6
CONTINUOUS
10
105.871
20
-60.8966
11
105.965
21
-60.5865
0
LINE
8
BLACK
6
CONTINUOUS
10
105.965
20
-60.5865
11
106.023
21
-59.9968
0
LINE
8
BLACK
6
CONTINUOUS
10
106.023
20
-59.9968
11
105.964
21
-59.4072
0
LINE
8
BLACK
6
CONTINUOUS
10
105.964
20
-59.4072
11
105.791
21
-58.8403
0
LINE
8
BLACK
6
CONTINUOUS
10
105.791
20
-58.8403
11
105.524
21
-58.3409
0
LINE
8
BLACK
6
CONTINUOUS
10
105.524
20
-58.3409
11
105.22
21
-58.1396
0
LINE
8
BLACK
6
CONTINUOUS
10
105.22
20
-58.1396
11
104.938
21
-58.4208
0
LINE
8
BLACK
6
CONTINUOUS
10
164.476
20
-58.3408
11
164.206
21
-58.8463
0
LINE
8
BLACK
6
CONTINUOUS
10
164.206
20
-58.8463
11
164.035
21
-59.4135
0
LINE
8
BLACK
6
CONTINUOUS
10
164.035
20
-59.4135
11
163.977
21
-60.0032
0
LINE
8
BLACK
6
CONTINUOUS
10
163.977
20
-60.0032
11
164.036
21
-60.5928
0
LINE
8
BLACK
6
CONTINUOUS
10
164.036
20
-60.5928
11
164.209
21
-61.1597
0
LINE
8
BLACK
6
CONTINUOUS
10
164.209
20
-61.1597
11
164.476
21
-61.6591
0
LINE
8
BLACK
6
CONTINUOUS
10
164.476
20
-61.6591
11
164.78
21
-61.8604
0
LINE
8
BLACK
6
CONTINUOUS
10
164.78
20
-61.8604
11
165.062
21
-61.5792
0
LINE
8
BLACK
6
CONTINUOUS
10
165.062
20
-61.5792
11
164.802
21
-61.2693
0
LINE
8
BLACK
6
CONTINUOUS
10
164.802
20
-61.2693
11
164.5
21
-60.4408
0
LINE
8
BLACK
6
CONTINUOUS
10
164.5
20
-60.4408
11
164.5
21
-59.5592
0
LINE
8
BLACK
6
CONTINUOUS
10
164.5
20
-59.5592
11
164.802
21
-58.7307
0
LINE
8
BLACK
6
CONTINUOUS
10
164.802
20
-58.7307
11
165.062
21
-58.4208
0
LINE
8
BLACK
6
CONTINUOUS
10
165.062
20
-58.4208
11
164.78
21
-58.1396
0
LINE
8
BLACK
6
CONTINUOUS
10
164.78
20
-58.1396
11
164.476
21
-58.3408
0
LINE
8
BLACK
6
CONTINUOUS
10
126.946
20
-60.45
11
126.84
21
-60.4711
0
LINE
8
BLACK
6
CONTINUOUS
10
126.84
20
-60.4711
11
126.739
21
-60.5126
0
LINE
8
BLACK
6
CONTINUOUS
10
126.739
20
-60.5126
11
126.649
21
-60.5728
0
LINE
8
BLACK
6
CONTINUOUS
10
126.649
20
-60.5728
11
126.573
21
-60.6494
0
LINE
8
BLACK
6
CONTINUOUS
10
126.573
20
-60.6494
11
126.513
21
-60.7395
0
LINE
8
BLACK
6
CONTINUOUS
10
126.513
20
-60.7395
11
126.471
21
-60.8396
0
LINE
8
BLACK
6
CONTINUOUS
10
126.471
20
-60.8396
11
126.45
21
-60.9458
0
LINE
8
BLACK
6
CONTINUOUS
10
126.45
20
-60.9458
11
126.45
21
-61.0542
0
LINE
8
BLACK
6
CONTINUOUS
10
126.45
20
-61.0542
11
126.471
21
-61.1604
0
LINE
8
BLACK
6
CONTINUOUS
10
126.471
20
-61.1604
11
126.513
21
-61.2605
0
LINE
8
BLACK
6
CONTINUOUS
10
126.513
20
-61.2605
11
126.573
21
-61.3506
0
LINE
8
BLACK
6
CONTINUOUS
10
126.573
20
-61.3506
11
126.649
21
-61.4272
0
LINE
8
BLACK
6
CONTINUOUS
10
126.649
20
-61.4272
11
126.739
21
-61.4874
0
LINE
8
BLACK
6
CONTINUOUS
10
126.739
20
-61.4874
11
126.84
21
-61.5289
0
LINE
8
BLACK
6
CONTINUOUS
10
126.84
20
-61.5289
11
126.946
21
-61.55
0
LINE
8
BLACK
6
CONTINUOUS
10
126.946
20
-61.55
11
127.054
21
-61.55
0
LINE
8
BLACK
6
CONTINUOUS
10
127.054
20
-61.55
11
127.16
21
-61.5289
0
LINE
8
BLACK
6
CONTINUOUS
10
127.16
20
-61.5289
11
127.261
21
-61.4874
0
LINE
8
BLACK
6
CONTINUOUS
10
127.261
20
-61.4874
11
127.351
21
-61.4272
0
LINE
8
BLACK
6
CONTINUOUS
10
127.351
20
-61.4272
11
127.427
21
-61.3506
0
LINE
8
BLACK
6
CONTINUOUS
10
127.427
20
-61.3506
11
127.487
21
-61.2605
0
LINE
8
BLACK
6
CONTINUOUS
10
127.487
20
-61.2605
11
127.529
21
-61.1604
0
LINE
8
BLACK
6
CONTINUOUS
10
127.529
20
-61.1604
11
127.55
21
-61.0542
0
LINE
8
BLACK
6
CONTINUOUS
10
127.55
20
-61.0542
11
127.55
21
-60.9458
0
LINE
8
BLACK
6
CONTINUOUS
10
127.55
20
-60.9458
11
127.529
21
-60.8396
0
LINE
8
BLACK
6
CONTINUOUS
10
127.529
20
-60.8396
11
127.487
21
-60.7395
0
LINE
8
BLACK
6
CONTINUOUS
10
127.487
20
-60.7395
11
127.427
21
-60.6494
0
LINE
8
BLACK
6
CONTINUOUS
10
127.427
20
-60.6494
11
127.351
21
-60.5728
0
LINE
8
BLACK
6
CONTINUOUS
10
127.351
20
-60.5728
11
127.261
21
-60.5126
0
LINE
8
BLACK
6
CONTINUOUS
10
127.261
20
-60.5126
11
127.16
21
-60.4711
0
LINE
8
BLACK
6
CONTINUOUS
10
127.16
20
-60.4711
11
127.054
21
-60.45
0
LINE
8
BLACK
6
CONTINUOUS
10
127.054
20
-60.45
11
126.946
21
-60.45
0
LINE
8
BLACK
6
CONTINUOUS
10
121.946
20
-60.45
11
121.84
21
-60.4711
0
LINE
8
BLACK
6
CONTINUOUS
10
121.84
20
-60.4711
11
121.739
21
-60.5126
0
LINE
8
BLACK
6
CONTINUOUS
10
121.739
20
-60.5126
11
121.649
21
-60.5728
0
LINE
8
BLACK
6
CONTINUOUS
10
121.649
20
-60.5728
11
121.573
21
-60.6494
0
LINE
8
BLACK
6
CONTINUOUS
10
121.573
20
-60.6494
11
121.513
21
-60.7395
0
LINE
8
BLACK
6
CONTINUOUS
10
121.513
20
-60.7395
11
121.471
21
-60.8396
0
LINE
8
BLACK
6
CONTINUOUS
10
121.471
20
-60.8396
11
121.45
21
-60.9458
0
LINE
8
BLACK
6
CONTINUOUS
10
121.45
20
-60.9458
11
121.45
21
-61.0542
0
LINE
8
BLACK
6
CONTINUOUS
10
121.45
20
-61.0542
11
121.471
21
-61.1604
0
LINE
8
BLACK
6
CONTINUOUS
10
121.471
20
-61.1604
11
121.513
21
-61.2605
0
LINE
8
BLACK
6
CONTINUOUS
10
121.513
20
-61.2605
11
121.573
21
-61.3506
0
LINE
8
BLACK
6
CONTINUOUS
10
121.573
20
-61.3506
11
121.649
21
-61.4272
0
LINE
8
BLACK
6
CONTINUOUS
10
121.649
20
-61.4272
11
121.739
21
-61.4874
0
LINE
8
BLACK
6
CONTINUOUS
10
121.739
20
-61.4874
11
121.84
21
-61.5289
0
LINE
8
BLACK
6
CONTINUOUS
10
121.84
20
-61.5289
11
121.946
21
-61.55
0
LINE
8
BLACK
6
CONTINUOUS
10
121.946
20
-61.55
11
122.054
21
-61.55
0
LINE
8
BLACK
6
CONTINUOUS
10
122.054
20
-61.55
11
122.16
21
-61.5289
0
LINE
8
BLACK
6
CONTINUOUS
10
122.16
20
-61.5289
11
122.261
21
-61.4874
0
LINE
8
BLACK
6
CONTINUOUS
10
122.261
20
-61.4874
11
122.351
21
-61.4272
0
LINE
8
BLACK
6
CONTINUOUS
10
122.351
20
-61.4272
11
122.427
21
-61.3506
0
LINE
8
BLACK
6
CONTINUOUS
10
122.427
20
-61.3506
11
122.487
21
-61.2605
0
LINE
8
BLACK
6
CONTINUOUS
10
122.487
20
-61.2605
11
122.529
21
-61.1604
0
LINE
8
BLACK
6
CONTINUOUS
10
122.529
20
-61.1604
11
122.55
21
-61.0542
0
LINE
8
BLACK
6
CONTINUOUS
10
122.55
20
-61.0542
11
122.55
21
-60.9458
0
LINE
8
BLACK
6
CONTINUOUS
10
122.55
20
-60.9458
11
122.529
21
-60.8396
0
LINE
8
BLACK
6
CONTINUOUS
10
122.529
20
-60.8396
11
122.487
21
-60.7395
0
LINE
8
BLACK
6
CONTINUOUS
10
122.487
20
-60.7395
11
122.427
21
-60.6494
0
LINE
8
BLACK
6
CONTINUOUS
10
122.427
20
-60.6494
11
122.351
21
-60.5728
0
LINE
8
BLACK
6
CONTINUOUS
10
122.351
20
-60.5728
11
122.261
21
-60.5126
0
LINE
8
BLACK
6
CONTINUOUS
10
122.261
20
-60.5126
11
122.16
21
-60.4711
0
LINE
8
BLACK
6
CONTINUOUS
10
122.16
20
-60.4711
11
122.054
21
-60.45
0
LINE
8
BLACK
6
CONTINUOUS
10
122.054
20
-60.45
11
121.946
21
-60.45
0
LINE
8
BLACK
6
CONTINUOUS
10
116.946
20
-60.45
11
116.84
21
-60.4711
0
LINE
8
BLACK
6
CONTINUOUS
10
116.84
20
-60.4711
11
116.739
21
-60.5126
0
LINE
8
BLACK
6
CONTINUOUS
10
116.739
20
-60.5126
11
116.649
21
-60.5728
0
LINE
8
BLACK
6
CONTINUOUS
10
116.649
20
-60.5728
11
116.573
21
-60.6494
0
LINE
8
BLACK
6
CONTINUOUS
10
116.573
20
-60.6494
11
116.513
21
-60.7395
0
LINE
8
BLACK
6
CONTINUOUS
10
116.513
20
-60.7395
11
116.471
21
-60.8396
0
LINE
8
BLACK
6
CONTINUOUS
10
116.471
20
-60.8396
11
116.45
21
-60.9458
0
LINE
8
BLACK
6
CONTINUOUS
10
116.45
20
-60.9458
11
116.45
21
-61.0542
0
LINE
8
BLACK
6
CONTINUOUS
10
116.45
20
-61.0542
11
116.471
21
-61.1604
0
LINE
8
BLACK
6
CONTINUOUS
10
116.471
20
-61.1604
11
116.513
21
-61.2605
0
LINE
8
BLACK
6
CONTINUOUS
10
116.513
20
-61.2605
11
116.573
21
-61.3506
0
LINE
8
BLACK
6
CONTINUOUS
10
116.573
20
-61.3506
11
116.649
21
-61.4272
0
LINE
8
BLACK
6
CONTINUOUS
10
116.649
20
-61.4272
11
116.739
21
-61.4874
0
LINE
8
BLACK
6
CONTINUOUS
10
116.739
20
-61.4874
11
116.84
21
-61.5289
0
LINE
8
BLACK
6
CONTINUOUS
10
116.84
20
-61.5289
11
116.946
21
-61.55
0
LINE
8
BLACK
6
CONTINUOUS
10
116.946
20
-61.55
11
117.054
21
-61.55
0
LINE
8
BLACK
6
CONTINUOUS
10
117.054
20
-61.55
11
117.16
21
-61.5289
0
LINE
8
BLACK
6
CONTINUOUS
10
117.16
20
-61.5289
11
117.261
21
-61.4874
0
LINE
8
BLACK
6
CONTINUOUS
10
117.261
20
-61.4874
11
117.351
21
-61.4272
0
LINE
8
BLACK
6
CONTINUOUS
10
117.351
20
-61.4272
11
117.427
21
-61.3506
0
LINE
8
BLACK
6
CONTINUOUS
10
117.427
20
-61.3506
11
117.487
21
-61.2605
0
LINE
8
BLACK
6
CONTINUOUS
10
117.487
20
-61.2605
11
117.529
21
-61.1604
0
LINE
8
BLACK
6
CONTINUOUS
10
117.529
20
-61.1604
11
117.55
21
-61.0542
0
LINE
8
BLACK
6
CONTINUOUS
10
117.55
20
-61.0542
11
117.55
21
-60.9458
0
LINE
8
BLACK
6
CONTINUOUS
10
117.55
20
-60.9458
11
117.529
21
-60.8396
0
LINE
8
BLACK
6
CONTINUOUS
10
117.529
20
-60.8396
11
117.487
21
-60.7395
0
LINE
8
BLACK
6
CONTINUOUS
10
117.487
20
-60.7395
11
117.427
21
-60.6494
0
LINE
8
BLACK
6
CONTINUOUS
10
117.427
20
-60.6494
11
117.351
21
-60.5728
0
LINE
8
BLACK
6
CONTINUOUS
10
117.351
20
-60.5728
11
117.261
21
-60.5126
0
LINE
8
BLACK
6
CONTINUOUS
10
117.261
20
-60.5126
11
117.16
21
-60.4711
0
LINE
8
BLACK
6
CONTINUOUS
10
117.16
20
-60.4711
11
117.054
21
-60.45
0
LINE
8
BLACK
6
CONTINUOUS
10
117.054
20
-60.45
11
116.946
21
-60.45
0
LINE
8
BLACK
6
CONTINUOUS
10
111.946
20
-60.45
11
111.84
21
-60.4711
0
LINE
8
BLACK
6
CONTINUOUS
10
111.84
20
-60.4711
11
111.739
21
-60.5126
0
LINE
8
BLACK
6
CONTINUOUS
10
111.739
20
-60.5126
11
111.649
21
-60.5728
0
LINE
8
BLACK
6
CONTINUOUS
10
111.649
20
-60.5728
11
111.573
21
-60.6494
0
LINE
8
BLACK
6
CONTINUOUS
10
111.573
20
-60.6494
11
111.513
21
-60.7395
0
LINE
8
BLACK
6
CONTINUOUS
10
111.513
20
-60.7395
11
111.471
21
-60.8396
0
LINE
8
BLACK
6
CONTINUOUS
10
111.471
20
-60.8396
11
111.45
21
-60.9458
0
LINE
8
BLACK
6
CONTINUOUS
10
111.45
20
-60.9458
11
111.45
21
-61.0542
0
LINE
8
BLACK
6
CONTINUOUS
10
111.45
20
-61.0542
11
111.471
21
-61.1604
0
LINE
8
BLACK
6
CONTINUOUS
10
111.471
20
-61.1604
11
111.513
21
-61.2605
0
LINE
8
BLACK
6
CONTINUOUS
10
111.513
20
-61.2605
11
111.573
21
-61.3506
0
LINE
8
BLACK
6
CONTINUOUS
10
111.573
20
-61.3506
11
111.649
21
-61.4272
0
LINE
8
BLACK
6
CONTINUOUS
10
111.649
20
-61.4272
11
111.739
21
-61.4874
0
LINE
8
BLACK
6
CONTINUOUS
10
111.739
20
-61.4874
11
111.84
21
-61.5289
0
LINE
8
BLACK
6
CONTINUOUS
10
111.84
20
-61.5289
11
111.946
21
-61.55
0
LINE
8
BLACK
6
CONTINUOUS
10
111.946
20
-61.55
11
112.054
21
-61.55
0
LINE
8
BLACK
6
CONTINUOUS
10
112.054
20
-61.55
11
112.16
21
-61.5289
0
LINE
8
BLACK
6
CONTINUOUS
10
112.16
20
-61.5289
11
112.261
21
-61.4874
0
LINE
8
BLACK
6
CONTINUOUS
10
112.261
20
-61.4874
11
112.351
21
-61.4272
0
LINE
8
BLACK
6
CONTINUOUS
10
112.351
20
-61.4272
11
112.427
21
-61.3506
0
LINE
8
BLACK
6
CONTINUOUS
10
112.427
20
-61.3506
11
112.487
21
-61.2605
0
LINE
8
BLACK
6
CONTINUOUS
10
112.487
20
-61.2605
11
112.529
21
-61.1604
0
LINE
8
BLACK
6
CONTINUOUS
10
112.529
20
-61.1604
11
112.55
21
-61.0542
0
LINE
8
BLACK
6
CONTINUOUS
10
112.55
20
-61.0542
11
112.55
21
-60.9458
0
LINE
8
BLACK
6
CONTINUOUS
10
112.55
20
-60.9458
11
112.529
21
-60.8396
0
LINE
8
BLACK
6
CONTINUOUS
10
112.529
20
-60.8396
11
112.487
21
-60.7395
0
LINE
8
BLACK
6
CONTINUOUS
10
112.487
20
-60.7395
11
112.427
21
-60.6494
0
LINE
8
BLACK
6
CONTINUOUS
10
112.427
20
-60.6494
11
112.351
21
-60.5728
0
LINE
8
BLACK
6
CONTINUOUS
10
112.351
20
-60.5728
11
112.261
21
-60.5126
0
LINE
8
BLACK
6
CONTINUOUS
10
112.261
20
-60.5126
11
112.16
21
-60.4711
0
LINE
8
BLACK
6
CONTINUOUS
10
112.16
20
-60.4711
11
112.054
21
-60.45
0
LINE
8
BLACK
6
CONTINUOUS
10
112.054
20
-60.45
11
111.946
21
-60.45
0
LINE
8
BLACK
6
CONTINUOUS
10
106.946
20
-60.45
11
106.84
21
-60.4711
0
LINE
8
BLACK
6
CONTINUOUS
10
106.84
20
-60.4711
11
106.739
21
-60.5126
0
LINE
8
BLACK
6
CONTINUOUS
10
106.739
20
-60.5126
11
106.649
21
-60.5728
0
LINE
8
BLACK
6
CONTINUOUS
10
106.649
20
-60.5728
11
106.573
21
-60.6494
0
LINE
8
BLACK
6
CONTINUOUS
10
106.573
20
-60.6494
11
106.513
21
-60.7395
0
LINE
8
BLACK
6
CONTINUOUS
10
106.513
20
-60.7395
11
106.471
21
-60.8396
0
LINE
8
BLACK
6
CONTINUOUS
10
106.471
20
-60.8396
11
106.45
21
-60.9458
0
LINE
8
BLACK
6
CONTINUOUS
10
106.45
20
-60.9458
11
106.45
21
-61.0542
0
LINE
8
BLACK
6
CONTINUOUS
10
106.45
20
-61.0542
11
106.471
21
-61.1604
0
LINE
8
BLACK
6
CONTINUOUS
10
106.471
20
-61.1604
11
106.513
21
-61.2605
0
LINE
8
BLACK
6
CONTINUOUS
10
106.513
20
-61.2605
11
106.573
21
-61.3506
0
LINE
8
BLACK
6
CONTINUOUS
10
106.573
20
-61.3506
11
106.649
21
-61.4272
0
LINE
8
BLACK
6
CONTINUOUS
10
106.649
20
-61.4272
11
106.739
21
-61.4874
0
LINE
8
BLACK
6
CONTINUOUS
10
106.739
20
-61.4874
11
106.84
21
-61.5289
0
LINE
8
BLACK
6
CONTINUOUS
10
106.84
20
-61.5289
11
106.946
21
-61.55
0
LINE
8
BLACK
6
CONTINUOUS
10
106.946
20
-61.55
11
107.054
21
-61.55
0
LINE
8
BLACK
6
CONTINUOUS
10
107.054
20
-61.55
11
107.16
21
-61.5289
0
LINE
8
BLACK
6
CONTINUOUS
10
107.16
20
-61.5289
11
107.261
21
-61.4874
0
LINE
8
BLACK
6
CONTINUOUS
10
107.261
20
-61.4874
11
107.351
21
-61.4272
0
LINE
8
BLACK
6
CONTINUOUS
10
107.351
20
-61.4272
11
107.427
21
-61.3506
0
LINE
8
BLACK
6
CONTINUOUS
10
107.427
20
-61.3506
11
107.487
21
-61.2605
0
LINE
8
BLACK
6
CONTINUOUS
10
107.487
20
-61.2605
11
107.529
21
-61.1604
0
LINE
8
BLACK
6
CONTINUOUS
10
107.529
20
-61.1604
11
107.55
21
-61.0542
0
LINE
8
BLACK
6
CONTINUOUS
10
107.55
20
-61.0542
11
107.55
21
-60.9458
0
LINE
8
BLACK
6
CONTINUOUS
10
107.55
20
-60.9458
11
107.529
21
-60.8396
0
LINE
8
BLACK
6
CONTINUOUS
10
107.529
20
-60.8396
11
107.487
21
-60.7395
0
LINE
8
BLACK
6
CONTINUOUS
10
107.487
20
-60.7395
11
107.427
21
-60.6494
0
LINE
8
BLACK
6
CONTINUOUS
10
107.427
20
-60.6494
11
107.351
21
-60.5728
0
LINE
8
BLACK
6
CONTINUOUS
10
107.351
20
-60.5728
11
107.261
21
-60.5126
0
LINE
8
BLACK
6
CONTINUOUS
10
107.261
20
-60.5126
11
107.16
21
-60.4711
0
LINE
8
BLACK
6
CONTINUOUS
10
107.16
20
-60.4711
11
107.054
21
-60.45
0
LINE
8
BLACK
6
CONTINUOUS
10
107.054
20
-60.45
11
106.946
21
-60.45
0
LINE
8
BLACK
6
CONTINUOUS
10
106.613
20
-91.9812
11
106.887
21
-92.1399
0
LINE
8
BLACK
6
CONTINUOUS
10
106.887
20
-92.1399
11
107.091
21
-92.3831
0
LINE
8
BLACK
6
CONTINUOUS
10
107.091
20
-92.3831
11
107.2
21
-92.6813
0
LINE
8
BLACK
6
CONTINUOUS
10
107.2
20
-92.6813
11
107.2
21
-92.9987
0
LINE
8
BLACK
6
CONTINUOUS
10
107.2
20
-92.9987
11
107.091
21
-93.2969
0
LINE
8
BLACK
6
CONTINUOUS
10
107.091
20
-93.2969
11
106.887
21
-93.5401
0
LINE
8
BLACK
6
CONTINUOUS
10
106.887
20
-93.5401
11
106.613
21
-93.6988
0
LINE
8
BLACK
6
CONTINUOUS
10
106.613
20
-93.6988
11
106.3
21
-93.7539
0
LINE
8
BLACK
6
CONTINUOUS
10
106.3
20
-93.7539
11
105.987
21
-93.6988
0
LINE
8
BLACK
6
CONTINUOUS
10
105.987
20
-93.6988
11
105.713
21
-93.5401
0
LINE
8
BLACK
6
CONTINUOUS
10
105.713
20
-93.5401
11
105.509
21
-93.2969
0
LINE
8
BLACK
6
CONTINUOUS
10
105.509
20
-93.2969
11
105.4
21
-92.9987
0
LINE
8
BLACK
6
CONTINUOUS
10
105.4
20
-92.9987
11
105.4
21
-92.6813
0
LINE
8
BLACK
6
CONTINUOUS
10
105.4
20
-92.6813
11
105.509
21
-92.3831
0
LINE
8
BLACK
6
CONTINUOUS
10
105.509
20
-92.3831
11
105.713
21
-92.1399
0
LINE
8
BLACK
6
CONTINUOUS
10
105.713
20
-92.1399
11
105.987
21
-91.9812
0
LINE
8
BLACK
6
CONTINUOUS
10
105.987
20
-91.9812
11
106.3
21
-91.9261
0
LINE
8
BLACK
6
CONTINUOUS
10
106.3
20
-91.9261
11
106.613
21
-91.9812
0
LINE
8
BLACK
6
CONTINUOUS
10
166.75
20
-90.45
11
165.05
21
-90.45
0
LINE
8
BLACK
6
CONTINUOUS
10
165.05
20
-90.45
11
165.05
21
-88.75
0
LINE
8
BLACK
6
CONTINUOUS
10
165.05
20
-88.75
11
166.75
21
-88.75
0
LINE
8
BLACK
6
CONTINUOUS
10
166.75
20
-88.75
11
166.75
21
-90.45
0
LINE
8
BLACK
6
CONTINUOUS
10
107.2
20
-91.2
11
105.4
21
-91.2
0
LINE
8
BLACK
6
CONTINUOUS
10
105.4
20
-91.2
11
105.4
21
-89.4
0
LINE
8
BLACK
6
CONTINUOUS
10
105.4
20
-89.4
11
107.2
21
-89.4
0
LINE
8
BLACK
6
CONTINUOUS
10
107.2
20
-89.4
11
107.2
21
-91.2
0
LINE
8
BLACK
6
CONTINUOUS
10
132.822
20
-77.666
11
132.928
21
-77.7277
0
LINE
8
BLACK
6
CONTINUOUS
10
132.928
20
-77.7277
11
133.008
21
-77.8223
0
LINE
8
BLACK
6
CONTINUOUS
10
133.008
20
-77.8223
11
133.05
21
-77.9383
0
LINE
8
BLACK
6
CONTINUOUS
10
133.05
20
-77.9383
11
133.05
21
-78.0617
0
LINE
8
BLACK
6
CONTINUOUS
10
133.05
20
-78.0617
11
133.008
21
-78.1777
0
LINE
8
BLACK
6
CONTINUOUS
10
133.008
20
-78.1777
11
132.928
21
-78.2723
0
LINE
8
BLACK
6
CONTINUOUS
10
132.928
20
-78.2723
11
132.822
21
-78.334
0
LINE
8
BLACK
6
CONTINUOUS
10
132.822
20
-78.334
11
132.7
21
-78.3554
0
LINE
8
BLACK
6
CONTINUOUS
10
132.7
20
-78.3554
11
132.578
21
-78.334
0
LINE
8
BLACK
6
CONTINUOUS
10
132.578
20
-78.334
11
132.556
21
-78.3209
0
LINE
8
BLACK
6
CONTINUOUS
10
132.556
20
-78.3209
11
130.392
21
-80.4845
0
LINE
8
BLACK
6
CONTINUOUS
10
130.392
20
-80.4845
11
130.382
21
-80.4972
0
LINE
8
BLACK
6
CONTINUOUS
10
130.382
20
-80.4972
11
130.367
21
-80.5055
0
LINE
8
BLACK
6
CONTINUOUS
10
130.367
20
-80.5055
11
130.354
21
-80.515
0
LINE
8
BLACK
6
CONTINUOUS
10
130.354
20
-80.515
11
130.348
21
-80.5165
0
LINE
8
BLACK
6
CONTINUOUS
10
130.348
20
-80.5165
11
130.343
21
-80.5193
0
LINE
8
BLACK
6
CONTINUOUS
10
130.343
20
-80.5193
11
130.327
21
-80.5222
0
LINE
8
BLACK
6
CONTINUOUS
10
130.327
20
-80.5222
11
130.311
21
-80.5264
0
LINE
8
BLACK
6
CONTINUOUS
10
130.311
20
-80.5264
11
130.295
21
-80.525
0
LINE
8
BLACK
6
CONTINUOUS
10
130.295
20
-80.525
11
128.752
21
-80.525
0
LINE
8
BLACK
6
CONTINUOUS
10
128.752
20
-80.525
11
127.325
21
-81.9518
0
LINE
8
BLACK
6
CONTINUOUS
10
127.325
20
-81.9518
11
127.325
21
-86.0446
0
LINE
8
BLACK
6
CONTINUOUS
10
127.325
20
-86.0446
11
127.326
21
-86.0611
0
LINE
8
BLACK
6
CONTINUOUS
10
127.326
20
-86.0611
11
127.322
21
-86.0771
0
LINE
8
BLACK
6
CONTINUOUS
10
127.322
20
-86.0771
11
127.319
21
-86.0934
0
LINE
8
BLACK
6
CONTINUOUS
10
127.319
20
-86.0934
11
127.316
21
-86.0982
0
LINE
8
BLACK
6
CONTINUOUS
10
127.316
20
-86.0982
11
127.315
21
-86.1036
0
LINE
8
BLACK
6
CONTINUOUS
10
127.315
20
-86.1036
11
127.306
21
-86.1172
0
LINE
8
BLACK
6
CONTINUOUS
10
127.306
20
-86.1172
11
127.297
21
-86.1316
0
LINE
8
BLACK
6
CONTINUOUS
10
127.297
20
-86.1316
11
127.285
21
-86.1422
0
LINE
8
BLACK
6
CONTINUOUS
10
127.285
20
-86.1422
11
125.02
21
-88.4065
0
LINE
8
BLACK
6
CONTINUOUS
10
125.02
20
-88.4065
11
125.05
21
-88.4883
0
LINE
8
BLACK
6
CONTINUOUS
10
125.05
20
-88.4883
11
125.05
21
-88.6117
0
LINE
8
BLACK
6
CONTINUOUS
10
125.05
20
-88.6117
11
125.008
21
-88.7277
0
LINE
8
BLACK
6
CONTINUOUS
10
125.008
20
-88.7277
11
124.928
21
-88.8222
0
LINE
8
BLACK
6
CONTINUOUS
10
124.928
20
-88.8222
11
124.822
21
-88.884
0
LINE
8
BLACK
6
CONTINUOUS
10
124.822
20
-88.884
11
124.7
21
-88.9054
0
LINE
8
BLACK
6
CONTINUOUS
10
124.7
20
-88.9054
11
124.578
21
-88.884
0
LINE
8
BLACK
6
CONTINUOUS
10
124.578
20
-88.884
11
124.472
21
-88.8222
0
LINE
8
BLACK
6
CONTINUOUS
10
124.472
20
-88.8222
11
124.392
21
-88.7277
0
LINE
8
BLACK
6
CONTINUOUS
10
124.392
20
-88.7277
11
124.35
21
-88.6117
0
LINE
8
BLACK
6
CONTINUOUS
10
124.35
20
-88.6117
11
124.35
21
-88.4883
0
LINE
8
BLACK
6
CONTINUOUS
10
124.35
20
-88.4883
11
124.392
21
-88.3723
0
LINE
8
BLACK
6
CONTINUOUS
10
124.392
20
-88.3723
11
124.472
21
-88.2777
0
LINE
8
BLACK
6
CONTINUOUS
10
124.472
20
-88.2777
11
124.578
21
-88.216
0
LINE
8
BLACK
6
CONTINUOUS
10
124.578
20
-88.216
11
124.7
21
-88.1946
0
LINE
8
BLACK
6
CONTINUOUS
10
124.7
20
-88.1946
11
124.822
21
-88.216
0
LINE
8
BLACK
6
CONTINUOUS
10
124.822
20
-88.216
11
124.844
21
-88.2291
0
LINE
8
BLACK
6
CONTINUOUS
10
124.844
20
-88.2291
11
127.075
21
-85.9982
0
LINE
8
BLACK
6
CONTINUOUS
10
127.075
20
-85.9982
11
127.075
21
-81.9054
0
LINE
8
BLACK
6
CONTINUOUS
10
127.075
20
-81.9054
11
127.074
21
-81.8889
0
LINE
8
BLACK
6
CONTINUOUS
10
127.074
20
-81.8889
11
127.078
21
-81.8729
0
LINE
8
BLACK
6
CONTINUOUS
10
127.078
20
-81.8729
11
127.081
21
-81.8566
0
LINE
8
BLACK
6
CONTINUOUS
10
127.081
20
-81.8566
11
127.084
21
-81.8518
0
LINE
8
BLACK
6
CONTINUOUS
10
127.084
20
-81.8518
11
127.085
21
-81.8464
0
LINE
8
BLACK
6
CONTINUOUS
10
127.085
20
-81.8464
11
127.094
21
-81.8328
0
LINE
8
BLACK
6
CONTINUOUS
10
127.094
20
-81.8328
11
127.103
21
-81.8184
0
LINE
8
BLACK
6
CONTINUOUS
10
127.103
20
-81.8184
11
127.115
21
-81.8077
0
LINE
8
BLACK
6
CONTINUOUS
10
127.115
20
-81.8077
11
128.608
21
-80.3155
0
LINE
8
BLACK
6
CONTINUOUS
10
128.608
20
-80.3155
11
128.618
21
-80.3028
0
LINE
8
BLACK
6
CONTINUOUS
10
128.618
20
-80.3028
11
128.633
21
-80.2945
0
LINE
8
BLACK
6
CONTINUOUS
10
128.633
20
-80.2945
11
128.646
21
-80.285
0
LINE
8
BLACK
6
CONTINUOUS
10
128.646
20
-80.285
11
128.652
21
-80.2835
0
LINE
8
BLACK
6
CONTINUOUS
10
128.652
20
-80.2835
11
128.657
21
-80.2807
0
LINE
8
BLACK
6
CONTINUOUS
10
128.657
20
-80.2807
11
128.673
21
-80.2778
0
LINE
8
BLACK
6
CONTINUOUS
10
128.673
20
-80.2778
11
128.689
21
-80.2736
0
LINE
8
BLACK
6
CONTINUOUS
10
128.689
20
-80.2736
11
128.705
21
-80.275
0
LINE
8
BLACK
6
CONTINUOUS
10
128.705
20
-80.275
11
130.248
21
-80.275
0
LINE
8
BLACK
6
CONTINUOUS
10
130.248
20
-80.275
11
132.38
21
-78.1435
0
LINE
8
BLACK
6
CONTINUOUS
10
132.38
20
-78.1435
11
132.35
21
-78.0617
0
LINE
8
BLACK
6
CONTINUOUS
10
132.35
20
-78.0617
11
132.35
21
-77.9383
0
LINE
8
BLACK
6
CONTINUOUS
10
132.35
20
-77.9383
11
132.392
21
-77.8223
0
LINE
8
BLACK
6
CONTINUOUS
10
132.392
20
-77.8223
11
132.472
21
-77.7277
0
LINE
8
BLACK
6
CONTINUOUS
10
132.472
20
-77.7277
11
132.578
21
-77.666
0
LINE
8
BLACK
6
CONTINUOUS
10
132.578
20
-77.666
11
132.7
21
-77.6446
0
LINE
8
BLACK
6
CONTINUOUS
10
132.7
20
-77.6446
11
132.822
21
-77.666
0
LINE
8
BLACK
6
CONTINUOUS
10
130.033
20
-79.7777
11
129.953
21
-79.8723
0
LINE
8
BLACK
6
CONTINUOUS
10
129.953
20
-79.8723
11
129.847
21
-79.934
0
LINE
8
BLACK
6
CONTINUOUS
10
129.847
20
-79.934
11
129.725
21
-79.9554
0
LINE
8
BLACK
6
CONTINUOUS
10
129.725
20
-79.9554
11
129.603
21
-79.934
0
LINE
8
BLACK
6
CONTINUOUS
10
129.603
20
-79.934
11
129.497
21
-79.8723
0
LINE
8
BLACK
6
CONTINUOUS
10
129.497
20
-79.8723
11
129.417
21
-79.7777
0
LINE
8
BLACK
6
CONTINUOUS
10
129.417
20
-79.7777
11
129.398
21
-79.725
0
LINE
8
BLACK
6
CONTINUOUS
10
129.398
20
-79.725
11
128.503
21
-79.725
0
LINE
8
BLACK
6
CONTINUOUS
10
128.503
20
-79.725
11
127.523
21
-80.705
0
LINE
8
BLACK
6
CONTINUOUS
10
127.523
20
-80.705
11
127.553
21
-80.7867
0
LINE
8
BLACK
6
CONTINUOUS
10
127.553
20
-80.7867
11
127.553
21
-80.9102
0
LINE
8
BLACK
6
CONTINUOUS
10
127.553
20
-80.9102
11
127.511
21
-81.0262
0
LINE
8
BLACK
6
CONTINUOUS
10
127.511
20
-81.0262
11
127.431
21
-81.1207
0
LINE
8
BLACK
6
CONTINUOUS
10
127.431
20
-81.1207
11
127.324
21
-81.1824
0
LINE
8
BLACK
6
CONTINUOUS
10
127.324
20
-81.1824
11
127.203
21
-81.2039
0
LINE
8
BLACK
6
CONTINUOUS
10
127.203
20
-81.2039
11
127.081
21
-81.1824
0
LINE
8
BLACK
6
CONTINUOUS
10
127.081
20
-81.1824
11
126.974
21
-81.1207
0
LINE
8
BLACK
6
CONTINUOUS
10
126.974
20
-81.1207
11
126.895
21
-81.0262
0
LINE
8
BLACK
6
CONTINUOUS
10
126.895
20
-81.0262
11
126.853
21
-80.9102
0
LINE
8
BLACK
6
CONTINUOUS
10
126.853
20
-80.9102
11
126.853
21
-80.7867
0
LINE
8
BLACK
6
CONTINUOUS
10
126.853
20
-80.7867
11
126.895
21
-80.6708
0
LINE
8
BLACK
6
CONTINUOUS
10
126.895
20
-80.6708
11
126.974
21
-80.5762
0
LINE
8
BLACK
6
CONTINUOUS
10
126.974
20
-80.5762
11
127.081
21
-80.5145
0
LINE
8
BLACK
6
CONTINUOUS
10
127.081
20
-80.5145
11
127.203
21
-80.4931
0
LINE
8
BLACK
6
CONTINUOUS
10
127.203
20
-80.4931
11
127.324
21
-80.5145
0
LINE
8
BLACK
6
CONTINUOUS
10
127.324
20
-80.5145
11
127.347
21
-80.5275
0
LINE
8
BLACK
6
CONTINUOUS
10
127.347
20
-80.5275
11
128.359
21
-79.5155
0
LINE
8
BLACK
6
CONTINUOUS
10
128.359
20
-79.5155
11
128.37
21
-79.5028
0
LINE
8
BLACK
6
CONTINUOUS
10
128.37
20
-79.5028
11
128.384
21
-79.4945
0
LINE
8
BLACK
6
CONTINUOUS
10
128.384
20
-79.4945
11
128.398
21
-79.485
0
LINE
8
BLACK
6
CONTINUOUS
10
128.398
20
-79.485
11
128.403
21
-79.4835
0
LINE
8
BLACK
6
CONTINUOUS
10
128.403
20
-79.4835
11
128.408
21
-79.4807
0
LINE
8
BLACK
6
CONTINUOUS
10
128.408
20
-79.4807
11
128.424
21
-79.4779
0
LINE
8
BLACK
6
CONTINUOUS
10
128.424
20
-79.4779
11
128.44
21
-79.4736
0
LINE
8
BLACK
6
CONTINUOUS
10
128.44
20
-79.4736
11
128.457
21
-79.475
0
LINE
8
BLACK
6
CONTINUOUS
10
128.457
20
-79.475
11
129.398
21
-79.475
0
LINE
8
BLACK
6
CONTINUOUS
10
129.398
20
-79.475
11
129.417
21
-79.4223
0
LINE
8
BLACK
6
CONTINUOUS
10
129.417
20
-79.4223
11
129.497
21
-79.3278
0
LINE
8
BLACK
6
CONTINUOUS
10
129.497
20
-79.3278
11
129.603
21
-79.2661
0
LINE
8
BLACK
6
CONTINUOUS
10
129.603
20
-79.2661
11
129.725
21
-79.2446
0
LINE
8
BLACK
6
CONTINUOUS
10
129.725
20
-79.2446
11
129.847
21
-79.2661
0
LINE
8
BLACK
6
CONTINUOUS
10
129.847
20
-79.2661
11
129.953
21
-79.3278
0
LINE
8
BLACK
6
CONTINUOUS
10
129.953
20
-79.3278
11
130.033
21
-79.4223
0
LINE
8
BLACK
6
CONTINUOUS
10
130.033
20
-79.4223
11
130.075
21
-79.5383
0
LINE
8
BLACK
6
CONTINUOUS
10
130.075
20
-79.5383
11
130.075
21
-79.6617
0
LINE
8
BLACK
6
CONTINUOUS
10
130.075
20
-79.6617
11
130.033
21
-79.7777
0
LINE
8
BLACK
6
CONTINUOUS
10
127.52
20
-79.7065
11
127.55
21
-79.7883
0
LINE
8
BLACK
6
CONTINUOUS
10
127.55
20
-79.7883
11
127.55
21
-79.9117
0
LINE
8
BLACK
6
CONTINUOUS
10
127.55
20
-79.9117
11
127.508
21
-80.0277
0
LINE
8
BLACK
6
CONTINUOUS
10
127.508
20
-80.0277
11
127.428
21
-80.1223
0
LINE
8
BLACK
6
CONTINUOUS
10
127.428
20
-80.1223
11
127.322
21
-80.184
0
LINE
8
BLACK
6
CONTINUOUS
10
127.322
20
-80.184
11
127.2
21
-80.2054
0
LINE
8
BLACK
6
CONTINUOUS
10
127.2
20
-80.2054
11
127.078
21
-80.184
0
LINE
8
BLACK
6
CONTINUOUS
10
127.078
20
-80.184
11
126.972
21
-80.1223
0
LINE
8
BLACK
6
CONTINUOUS
10
126.972
20
-80.1223
11
126.892
21
-80.0277
0
LINE
8
BLACK
6
CONTINUOUS
10
126.892
20
-80.0277
11
126.85
21
-79.9117
0
LINE
8
BLACK
6
CONTINUOUS
10
126.85
20
-79.9117
11
126.85
21
-79.7883
0
LINE
8
BLACK
6
CONTINUOUS
10
126.85
20
-79.7883
11
126.892
21
-79.6723
0
LINE
8
BLACK
6
CONTINUOUS
10
126.892
20
-79.6723
11
126.972
21
-79.5777
0
LINE
8
BLACK
6
CONTINUOUS
10
126.972
20
-79.5777
11
127.078
21
-79.516
0
LINE
8
BLACK
6
CONTINUOUS
10
127.078
20
-79.516
11
127.2
21
-79.4946
0
LINE
8
BLACK
6
CONTINUOUS
10
127.2
20
-79.4946
11
127.322
21
-79.516
0
LINE
8
BLACK
6
CONTINUOUS
10
127.322
20
-79.516
11
127.344
21
-79.5291
0
LINE
8
BLACK
6
CONTINUOUS
10
127.344
20
-79.5291
11
128.258
21
-78.6155
0
LINE
8
BLACK
6
CONTINUOUS
10
128.258
20
-78.6155
11
128.268
21
-78.6028
0
LINE
8
BLACK
6
CONTINUOUS
10
128.268
20
-78.6028
11
128.283
21
-78.5945
0
LINE
8
BLACK
6
CONTINUOUS
10
128.283
20
-78.5945
11
128.296
21
-78.585
0
LINE
8
BLACK
6
CONTINUOUS
10
128.296
20
-78.585
11
128.302
21
-78.5835
0
LINE
8
BLACK
6
CONTINUOUS
10
128.302
20
-78.5835
11
128.307
21
-78.5807
0
LINE
8
BLACK
6
CONTINUOUS
10
128.307
20
-78.5807
11
128.323
21
-78.5779
0
LINE
8
BLACK
6
CONTINUOUS
10
128.323
20
-78.5779
11
128.339
21
-78.5736
0
LINE
8
BLACK
6
CONTINUOUS
10
128.339
20
-78.5736
11
128.355
21
-78.575
0
LINE
8
BLACK
6
CONTINUOUS
10
128.355
20
-78.575
11
129.398
21
-78.575
0
LINE
8
BLACK
6
CONTINUOUS
10
129.398
20
-78.575
11
129.417
21
-78.5223
0
LINE
8
BLACK
6
CONTINUOUS
10
129.417
20
-78.5223
11
129.497
21
-78.4278
0
LINE
8
BLACK
6
CONTINUOUS
10
129.497
20
-78.4278
11
129.603
21
-78.366
0
LINE
8
BLACK
6
CONTINUOUS
10
129.603
20
-78.366
11
129.725
21
-78.3446
0
LINE
8
BLACK
6
CONTINUOUS
10
129.725
20
-78.3446
11
129.847
21
-78.366
0
LINE
8
BLACK
6
CONTINUOUS
10
129.847
20
-78.366
11
129.953
21
-78.4278
0
LINE
8
BLACK
6
CONTINUOUS
10
129.953
20
-78.4278
11
130.033
21
-78.5223
0
LINE
8
BLACK
6
CONTINUOUS
10
130.033
20
-78.5223
11
130.075
21
-78.6383
0
LINE
8
BLACK
6
CONTINUOUS
10
130.075
20
-78.6383
11
130.075
21
-78.7617
0
LINE
8
BLACK
6
CONTINUOUS
10
130.075
20
-78.7617
11
130.033
21
-78.8777
0
LINE
8
BLACK
6
CONTINUOUS
10
130.033
20
-78.8777
11
129.953
21
-78.9723
0
LINE
8
BLACK
6
CONTINUOUS
10
129.953
20
-78.9723
11
129.847
21
-79.034
0
LINE
8
BLACK
6
CONTINUOUS
10
129.847
20
-79.034
11
129.725
21
-79.0554
0
LINE
8
BLACK
6
CONTINUOUS
10
129.725
20
-79.0554
11
129.603
21
-79.034
0
LINE
8
BLACK
6
CONTINUOUS
10
129.603
20
-79.034
11
129.497
21
-78.9723
0
LINE
8
BLACK
6
CONTINUOUS
10
129.497
20
-78.9723
11
129.417
21
-78.8777
0
LINE
8
BLACK
6
CONTINUOUS
10
129.417
20
-78.8777
11
129.398
21
-78.825
0
LINE
8
BLACK
6
CONTINUOUS
10
129.398
20
-78.825
11
128.402
21
-78.825
0
LINE
8
BLACK
6
CONTINUOUS
10
128.402
20
-78.825
11
127.52
21
-79.7065
0
LINE
8
BLACK
6
CONTINUOUS
10
110.728
20
-87.2277
11
110.808
21
-87.3223
0
LINE
8
BLACK
6
CONTINUOUS
10
110.808
20
-87.3223
11
110.85
21
-87.4383
0
LINE
8
BLACK
6
CONTINUOUS
10
110.85
20
-87.4383
11
110.85
21
-87.5617
0
LINE
8
BLACK
6
CONTINUOUS
10
110.85
20
-87.5617
11
110.808
21
-87.6777
0
LINE
8
BLACK
6
CONTINUOUS
10
110.808
20
-87.6777
11
110.728
21
-87.7723
0
LINE
8
BLACK
6
CONTINUOUS
10
110.728
20
-87.7723
11
110.622
21
-87.834
0
LINE
8
BLACK
6
CONTINUOUS
10
110.622
20
-87.834
11
110.5
21
-87.8554
0
LINE
8
BLACK
6
CONTINUOUS
10
110.5
20
-87.8554
11
110.378
21
-87.834
0
LINE
8
BLACK
6
CONTINUOUS
10
110.378
20
-87.834
11
110.272
21
-87.7723
0
LINE
8
BLACK
6
CONTINUOUS
10
110.272
20
-87.7723
11
110.192
21
-87.6777
0
LINE
8
BLACK
6
CONTINUOUS
10
110.192
20
-87.6777
11
110.15
21
-87.5617
0
LINE
8
BLACK
6
CONTINUOUS
10
110.15
20
-87.5617
11
110.15
21
-87.4383
0
LINE
8
BLACK
6
CONTINUOUS
10
110.15
20
-87.4383
11
110.192
21
-87.3223
0
LINE
8
BLACK
6
CONTINUOUS
10
110.192
20
-87.3223
11
110.272
21
-87.2277
0
LINE
8
BLACK
6
CONTINUOUS
10
110.272
20
-87.2277
11
110.325
21
-87.1969
0
LINE
8
BLACK
6
CONTINUOUS
10
110.325
20
-87.1969
11
110.325
21
-86.9897
0
LINE
8
BLACK
6
CONTINUOUS
10
110.325
20
-86.9897
11
110.325
21
-86.9897
0
LINE
8
BLACK
6
CONTINUOUS
10
110.325
20
-86.9897
11
110.325
21
-84.3076
0
LINE
8
BLACK
6
CONTINUOUS
10
110.325
20
-84.3076
11
110.323
21
-84.2845
0
LINE
8
BLACK
6
CONTINUOUS
10
110.323
20
-84.2845
11
110.329
21
-84.2621
0
LINE
8
BLACK
6
CONTINUOUS
10
110.329
20
-84.2621
11
110.333
21
-84.2392
0
LINE
8
BLACK
6
CONTINUOUS
10
110.333
20
-84.2392
11
110.337
21
-84.2325
0
LINE
8
BLACK
6
CONTINUOUS
10
110.337
20
-84.2325
11
110.339
21
-84.2249
0
LINE
8
BLACK
6
CONTINUOUS
10
110.339
20
-84.2249
11
110.352
21
-84.2059
0
LINE
8
BLACK
6
CONTINUOUS
10
110.352
20
-84.2059
11
110.364
21
-84.1858
0
LINE
8
BLACK
6
CONTINUOUS
10
110.364
20
-84.1858
11
110.382
21
-84.1709
0
LINE
8
BLACK
6
CONTINUOUS
10
110.382
20
-84.1709
11
114.722
21
-79.8306
0
LINE
8
BLACK
6
CONTINUOUS
10
114.722
20
-79.8306
11
114.7
21
-79.7705
0
LINE
8
BLACK
6
CONTINUOUS
10
114.7
20
-79.7705
11
114.7
21
-79.6295
0
LINE
8
BLACK
6
CONTINUOUS
10
114.7
20
-79.6295
11
114.748
21
-79.4969
0
LINE
8
BLACK
6
CONTINUOUS
10
114.748
20
-79.4969
11
114.839
21
-79.3889
0
LINE
8
BLACK
6
CONTINUOUS
10
114.839
20
-79.3889
11
114.961
21
-79.3183
0
LINE
8
BLACK
6
CONTINUOUS
10
114.961
20
-79.3183
11
114.975
21
-79.3159
0
LINE
8
BLACK
6
CONTINUOUS
10
114.975
20
-79.3159
11
114.975
21
-77.9518
0
LINE
8
BLACK
6
CONTINUOUS
10
114.975
20
-77.9518
11
114.017
21
-76.9941
0
LINE
8
BLACK
6
CONTINUOUS
10
114.017
20
-76.9941
11
113.956
21
-77.0294
0
LINE
8
BLACK
6
CONTINUOUS
10
113.956
20
-77.0294
11
113.8
21
-77.0569
0
LINE
8
BLACK
6
CONTINUOUS
10
113.8
20
-77.0569
11
113.644
21
-77.0294
0
LINE
8
BLACK
6
CONTINUOUS
10
113.644
20
-77.0294
11
113.506
21
-76.95
0
LINE
8
BLACK
6
CONTINUOUS
10
113.506
20
-76.95
11
113.404
21
-76.8285
0
LINE
8
BLACK
6
CONTINUOUS
10
113.404
20
-76.8285
11
113.35
21
-76.6793
0
LINE
8
BLACK
6
CONTINUOUS
10
113.35
20
-76.6793
11
113.35
21
-76.5207
0
LINE
8
BLACK
6
CONTINUOUS
10
113.35
20
-76.5207
11
113.404
21
-76.3715
0
LINE
8
BLACK
6
CONTINUOUS
10
113.404
20
-76.3715
11
113.506
21
-76.25
0
LINE
8
BLACK
6
CONTINUOUS
10
113.506
20
-76.25
11
113.644
21
-76.1706
0
LINE
8
BLACK
6
CONTINUOUS
10
113.644
20
-76.1706
11
113.8
21
-76.1431
0
LINE
8
BLACK
6
CONTINUOUS
10
113.8
20
-76.1431
11
113.956
21
-76.1706
0
LINE
8
BLACK
6
CONTINUOUS
10
113.956
20
-76.1706
11
114.094
21
-76.25
0
LINE
8
BLACK
6
CONTINUOUS
10
114.094
20
-76.25
11
114.196
21
-76.3715
0
LINE
8
BLACK
6
CONTINUOUS
10
114.196
20
-76.3715
11
114.25
21
-76.5207
0
LINE
8
BLACK
6
CONTINUOUS
10
114.25
20
-76.5207
11
114.25
21
-76.6793
0
LINE
8
BLACK
6
CONTINUOUS
10
114.25
20
-76.6793
11
114.198
21
-76.8215
0
LINE
8
BLACK
6
CONTINUOUS
10
114.198
20
-76.8215
11
115.185
21
-77.8078
0
LINE
8
BLACK
6
CONTINUOUS
10
115.185
20
-77.8078
11
115.197
21
-77.8184
0
LINE
8
BLACK
6
CONTINUOUS
10
115.197
20
-77.8184
11
115.206
21
-77.8328
0
LINE
8
BLACK
6
CONTINUOUS
10
115.206
20
-77.8328
11
115.215
21
-77.8464
0
LINE
8
BLACK
6
CONTINUOUS
10
115.215
20
-77.8464
11
115.216
21
-77.8517
0
LINE
8
BLACK
6
CONTINUOUS
10
115.216
20
-77.8517
11
115.219
21
-77.8566
0
LINE
8
BLACK
6
CONTINUOUS
10
115.219
20
-77.8566
11
115.222
21
-77.8729
0
LINE
8
BLACK
6
CONTINUOUS
10
115.222
20
-77.8729
11
115.226
21
-77.8889
0
LINE
8
BLACK
6
CONTINUOUS
10
115.226
20
-77.8889
11
115.225
21
-77.9055
0
LINE
8
BLACK
6
CONTINUOUS
10
115.225
20
-77.9055
11
115.225
21
-79.3159
0
LINE
8
BLACK
6
CONTINUOUS
10
115.225
20
-79.3159
11
115.239
21
-79.3183
0
LINE
8
BLACK
6
CONTINUOUS
10
115.239
20
-79.3183
11
115.361
21
-79.3889
0
LINE
8
BLACK
6
CONTINUOUS
10
115.361
20
-79.3889
11
115.452
21
-79.4969
0
LINE
8
BLACK
6
CONTINUOUS
10
115.452
20
-79.4969
11
115.462
21
-79.525
0
LINE
8
BLACK
6
CONTINUOUS
10
115.462
20
-79.525
11
117.628
21
-79.525
0
LINE
8
BLACK
6
CONTINUOUS
10
117.628
20
-79.525
11
124.071
21
-73.0817
0
LINE
8
BLACK
6
CONTINUOUS
10
124.071
20
-73.0817
11
124.086
21
-73.0639
0
LINE
8
BLACK
6
CONTINUOUS
10
124.086
20
-73.0639
11
124.106
21
-73.0523
0
LINE
8
BLACK
6
CONTINUOUS
10
124.106
20
-73.0523
11
124.125
21
-73.039
0
LINE
8
BLACK
6
CONTINUOUS
10
124.125
20
-73.039
11
124.132
21
-73.0369
0
LINE
8
BLACK
6
CONTINUOUS
10
124.132
20
-73.0369
11
124.139
21
-73.033
0
LINE
8
BLACK
6
CONTINUOUS
10
124.139
20
-73.033
11
124.162
21
-73.029
0
LINE
8
BLACK
6
CONTINUOUS
10
124.162
20
-73.029
11
124.185
21
-73.023
0
LINE
8
BLACK
6
CONTINUOUS
10
124.185
20
-73.023
11
124.208
21
-73.025
0
LINE
8
BLACK
6
CONTINUOUS
10
124.208
20
-73.025
11
137.428
21
-73.025
0
LINE
8
BLACK
6
CONTINUOUS
10
137.428
20
-73.025
11
142.721
21
-67.7317
0
LINE
8
BLACK
6
CONTINUOUS
10
142.721
20
-67.7317
11
142.736
21
-67.7139
0
LINE
8
BLACK
6
CONTINUOUS
10
142.736
20
-67.7139
11
142.756
21
-67.7023
0
LINE
8
BLACK
6
CONTINUOUS
10
142.756
20
-67.7023
11
142.775
21
-67.6889
0
LINE
8
BLACK
6
CONTINUOUS
10
142.775
20
-67.6889
11
142.782
21
-67.6869
0
LINE
8
BLACK
6
CONTINUOUS
10
142.782
20
-67.6869
11
142.789
21
-67.683
0
LINE
8
BLACK
6
CONTINUOUS
10
142.789
20
-67.683
11
142.812
21
-67.679
0
LINE
8
BLACK
6
CONTINUOUS
10
142.812
20
-67.679
11
142.835
21
-67.673
0
LINE
8
BLACK
6
CONTINUOUS
10
142.835
20
-67.673
11
142.858
21
-67.675
0
LINE
8
BLACK
6
CONTINUOUS
10
142.858
20
-67.675
11
142.978
21
-67.675
0
LINE
8
BLACK
6
CONTINUOUS
10
142.978
20
-67.675
11
143.061
21
-67.5916
0
LINE
8
BLACK
6
CONTINUOUS
10
143.061
20
-67.5916
11
143.05
21
-67.5617
0
LINE
8
BLACK
6
CONTINUOUS
10
143.05
20
-67.5617
11
143.05
21
-67.4383
0
LINE
8
BLACK
6
CONTINUOUS
10
143.05
20
-67.4383
11
143.092
21
-67.3223
0
LINE
8
BLACK
6
CONTINUOUS
10
143.092
20
-67.3223
11
143.172
21
-67.2277
0
LINE
8
BLACK
6
CONTINUOUS
10
143.172
20
-67.2277
11
143.278
21
-67.166
0
LINE
8
BLACK
6
CONTINUOUS
10
143.278
20
-67.166
11
143.4
21
-67.1446
0
LINE
8
BLACK
6
CONTINUOUS
10
143.4
20
-67.1446
11
143.522
21
-67.166
0
LINE
8
BLACK
6
CONTINUOUS
10
143.522
20
-67.166
11
143.628
21
-67.2277
0
LINE
8
BLACK
6
CONTINUOUS
10
143.628
20
-67.2277
11
143.708
21
-67.3223
0
LINE
8
BLACK
6
CONTINUOUS
10
143.708
20
-67.3223
11
143.75
21
-67.4383
0
LINE
8
BLACK
6
CONTINUOUS
10
143.75
20
-67.4383
11
143.75
21
-67.5617
0
LINE
8
BLACK
6
CONTINUOUS
10
143.75
20
-67.5617
11
143.708
21
-67.6777
0
LINE
8
BLACK
6
CONTINUOUS
10
143.708
20
-67.6777
11
143.628
21
-67.7723
0
LINE
8
BLACK
6
CONTINUOUS
10
143.628
20
-67.7723
11
143.522
21
-67.834
0
LINE
8
BLACK
6
CONTINUOUS
10
143.522
20
-67.834
11
143.4
21
-67.8554
0
LINE
8
BLACK
6
CONTINUOUS
10
143.4
20
-67.8554
11
143.308
21
-67.8392
0
LINE
8
BLACK
6
CONTINUOUS
10
143.308
20
-67.8392
11
143.179
21
-67.9683
0
LINE
8
BLACK
6
CONTINUOUS
10
143.179
20
-67.9683
11
143.164
21
-67.9861
0
LINE
8
BLACK
6
CONTINUOUS
10
143.164
20
-67.9861
11
143.144
21
-67.9977
0
LINE
8
BLACK
6
CONTINUOUS
10
143.144
20
-67.9977
11
143.125
21
-68.011
0
LINE
8
BLACK
6
CONTINUOUS
10
143.125
20
-68.011
11
143.118
21
-68.0131
0
LINE
8
BLACK
6
CONTINUOUS
10
143.118
20
-68.0131
11
143.111
21
-68.017
0
LINE
8
BLACK
6
CONTINUOUS
10
143.111
20
-68.017
11
143.088
21
-68.021
0
LINE
8
BLACK
6
CONTINUOUS
10
143.088
20
-68.021
11
143.065
21
-68.027
0
LINE
8
BLACK
6
CONTINUOUS
10
143.065
20
-68.027
11
143.042
21
-68.025
0
LINE
8
BLACK
6
CONTINUOUS
10
143.042
20
-68.025
11
142.922
21
-68.025
0
LINE
8
BLACK
6
CONTINUOUS
10
142.922
20
-68.025
11
137.629
21
-73.3183
0
LINE
8
BLACK
6
CONTINUOUS
10
137.629
20
-73.3183
11
137.614
21
-73.3361
0
LINE
8
BLACK
6
CONTINUOUS
10
137.614
20
-73.3361
11
137.594
21
-73.3477
0
LINE
8
BLACK
6
CONTINUOUS
10
137.594
20
-73.3477
11
137.575
21
-73.361
0
LINE
8
BLACK
6
CONTINUOUS
10
137.575
20
-73.361
11
137.568
21
-73.3631
0
LINE
8
BLACK
6
CONTINUOUS
10
137.568
20
-73.3631
11
137.561
21
-73.367
0
LINE
8
BLACK
6
CONTINUOUS
10
137.561
20
-73.367
11
137.538
21
-73.371
0
LINE
8
BLACK
6
CONTINUOUS
10
137.538
20
-73.371
11
137.515
21
-73.377
0
LINE
8
BLACK
6
CONTINUOUS
10
137.515
20
-73.377
11
137.492
21
-73.375
0
LINE
8
BLACK
6
CONTINUOUS
10
137.492
20
-73.375
11
124.272
21
-73.375
0
LINE
8
BLACK
6
CONTINUOUS
10
124.272
20
-73.375
11
117.829
21
-79.8183
0
LINE
8
BLACK
6
CONTINUOUS
10
117.829
20
-79.8183
11
117.814
21
-79.8361
0
LINE
8
BLACK
6
CONTINUOUS
10
117.814
20
-79.8361
11
117.794
21
-79.8477
0
LINE
8
BLACK
6
CONTINUOUS
10
117.794
20
-79.8477
11
117.775
21
-79.861
0
LINE
8
BLACK
6
CONTINUOUS
10
117.775
20
-79.861
11
117.768
21
-79.8631
0
LINE
8
BLACK
6
CONTINUOUS
10
117.768
20
-79.8631
11
117.761
21
-79.867
0
LINE
8
BLACK
6
CONTINUOUS
10
117.761
20
-79.867
11
117.738
21
-79.871
0
LINE
8
BLACK
6
CONTINUOUS
10
117.738
20
-79.871
11
117.715
21
-79.877
0
LINE
8
BLACK
6
CONTINUOUS
10
117.715
20
-79.877
11
117.692
21
-79.875
0
LINE
8
BLACK
6
CONTINUOUS
10
117.692
20
-79.875
11
115.462
21
-79.875
0
LINE
8
BLACK
6
CONTINUOUS
10
115.462
20
-79.875
11
115.452
21
-79.9031
0
LINE
8
BLACK
6
CONTINUOUS
10
115.452
20
-79.9031
11
115.361
21
-80.0111
0
LINE
8
BLACK
6
CONTINUOUS
10
115.361
20
-80.0111
11
115.239
21
-80.0817
0
LINE
8
BLACK
6
CONTINUOUS
10
115.239
20
-80.0817
11
115.1
21
-80.1062
0
LINE
8
BLACK
6
CONTINUOUS
10
115.1
20
-80.1062
11
114.965
21
-80.0824
0
LINE
8
BLACK
6
CONTINUOUS
10
114.965
20
-80.0824
11
110.675
21
-84.3725
0
LINE
8
BLACK
6
CONTINUOUS
10
110.675
20
-84.3725
11
110.675
21
-87.1969
0
LINE
8
BLACK
6
CONTINUOUS
10
110.675
20
-87.1969
11
110.728
21
-87.2277
0
LINE
8
BLACK
6
CONTINUOUS
10
138.372
20
-70.856
11
138.478
21
-70.9178
0
LINE
8
BLACK
6
CONTINUOUS
10
138.478
20
-70.9178
11
138.558
21
-71.0123
0
LINE
8
BLACK
6
CONTINUOUS
10
138.558
20
-71.0123
11
138.6
21
-71.1283
0
LINE
8
BLACK
6
CONTINUOUS
10
138.6
20
-71.1283
11
138.6
21
-71.2517
0
LINE
8
BLACK
6
CONTINUOUS
10
138.6
20
-71.2517
11
138.558
21
-71.3677
0
LINE
8
BLACK
6
CONTINUOUS
10
138.558
20
-71.3677
11
138.478
21
-71.4623
0
LINE
8
BLACK
6
CONTINUOUS
10
138.478
20
-71.4623
11
138.372
21
-71.524
0
LINE
8
BLACK
6
CONTINUOUS
10
138.372
20
-71.524
11
138.25
21
-71.5454
0
LINE
8
BLACK
6
CONTINUOUS
10
138.25
20
-71.5454
11
138.128
21
-71.524
0
LINE
8
BLACK
6
CONTINUOUS
10
138.128
20
-71.524
11
138.083
21
-71.498
0
LINE
8
BLACK
6
CONTINUOUS
10
138.083
20
-71.498
11
137.039
21
-72.5426
0
LINE
8
BLACK
6
CONTINUOUS
10
137.039
20
-72.5426
11
137.03
21
-72.5528
0
LINE
8
BLACK
6
CONTINUOUS
10
137.03
20
-72.5528
11
137.019
21
-72.5594
0
LINE
8
BLACK
6
CONTINUOUS
10
137.019
20
-72.5594
11
137.008
21
-72.567
0
LINE
8
BLACK
6
CONTINUOUS
10
137.008
20
-72.567
11
137.004
21
-72.5682
0
LINE
8
BLACK
6
CONTINUOUS
10
137.004
20
-72.5682
11
137
21
-72.5704
0
LINE
8
BLACK
6
CONTINUOUS
10
137
20
-72.5704
11
136.987
21
-72.5727
0
LINE
8
BLACK
6
CONTINUOUS
10
136.987
20
-72.5727
11
136.974
21
-72.5761
0
LINE
8
BLACK
6
CONTINUOUS
10
136.974
20
-72.5761
11
136.961
21
-72.575
0
LINE
8
BLACK
6
CONTINUOUS
10
136.961
20
-72.575
11
129.136
21
-72.575
0
LINE
8
BLACK
6
CONTINUOUS
10
129.136
20
-72.575
11
129.108
21
-72.6527
0
LINE
8
BLACK
6
CONTINUOUS
10
129.108
20
-72.6527
11
129.028
21
-72.7472
0
LINE
8
BLACK
6
CONTINUOUS
10
129.028
20
-72.7472
11
128.922
21
-72.809
0
LINE
8
BLACK
6
CONTINUOUS
10
128.922
20
-72.809
11
128.8
21
-72.8304
0
LINE
8
BLACK
6
CONTINUOUS
10
128.8
20
-72.8304
11
128.678
21
-72.809
0
LINE
8
BLACK
6
CONTINUOUS
10
128.678
20
-72.809
11
128.572
21
-72.7472
0
LINE
8
BLACK
6
CONTINUOUS
10
128.572
20
-72.7472
11
128.492
21
-72.6527
0
LINE
8
BLACK
6
CONTINUOUS
10
128.492
20
-72.6527
11
128.45
21
-72.5367
0
LINE
8
BLACK
6
CONTINUOUS
10
128.45
20
-72.5367
11
128.45
21
-72.4133
0
LINE
8
BLACK
6
CONTINUOUS
10
128.45
20
-72.4133
11
128.492
21
-72.2973
0
LINE
8
BLACK
6
CONTINUOUS
10
128.492
20
-72.2973
11
128.572
21
-72.2027
0
LINE
8
BLACK
6
CONTINUOUS
10
128.572
20
-72.2027
11
128.678
21
-72.141
0
LINE
8
BLACK
6
CONTINUOUS
10
128.678
20
-72.141
11
128.8
21
-72.1196
0
LINE
8
BLACK
6
CONTINUOUS
10
128.8
20
-72.1196
11
128.922
21
-72.141
0
LINE
8
BLACK
6
CONTINUOUS
10
128.922
20
-72.141
11
129.028
21
-72.2027
0
LINE
8
BLACK
6
CONTINUOUS
10
129.028
20
-72.2027
11
129.108
21
-72.2973
0
LINE
8
BLACK
6
CONTINUOUS
10
129.108
20
-72.2973
11
129.136
21
-72.375
0
LINE
8
BLACK
6
CONTINUOUS
10
129.136
20
-72.375
11
136.924
21
-72.375
0
LINE
8
BLACK
6
CONTINUOUS
10
136.924
20
-72.375
11
137.939
21
-71.3594
0
LINE
8
BLACK
6
CONTINUOUS
10
137.939
20
-71.3594
11
137.9
21
-71.2517
0
LINE
8
BLACK
6
CONTINUOUS
10
137.9
20
-71.2517
11
137.9
21
-71.1283
0
LINE
8
BLACK
6
CONTINUOUS
10
137.9
20
-71.1283
11
137.942
21
-71.0123
0
LINE
8
BLACK
6
CONTINUOUS
10
137.942
20
-71.0123
11
138.022
21
-70.9178
0
LINE
8
BLACK
6
CONTINUOUS
10
138.022
20
-70.9178
11
138.128
21
-70.856
0
LINE
8
BLACK
6
CONTINUOUS
10
138.128
20
-70.856
11
138.25
21
-70.8346
0
LINE
8
BLACK
6
CONTINUOUS
10
138.25
20
-70.8346
11
138.372
21
-70.856
0
LINE
8
BLACK
6
CONTINUOUS
10
118.237
20
-86.8624
11
118.344
21
-86.9241
0
LINE
8
BLACK
6
CONTINUOUS
10
118.344
20
-86.9241
11
118.423
21
-87.0186
0
LINE
8
BLACK
6
CONTINUOUS
10
118.423
20
-87.0186
11
118.466
21
-87.1346
0
LINE
8
BLACK
6
CONTINUOUS
10
118.466
20
-87.1346
11
118.466
21
-87.258
0
LINE
8
BLACK
6
CONTINUOUS
10
118.466
20
-87.258
11
118.423
21
-87.374
0
LINE
8
BLACK
6
CONTINUOUS
10
118.423
20
-87.374
11
118.344
21
-87.4686
0
LINE
8
BLACK
6
CONTINUOUS
10
118.344
20
-87.4686
11
118.237
21
-87.5303
0
LINE
8
BLACK
6
CONTINUOUS
10
118.237
20
-87.5303
11
118.116
21
-87.5517
0
LINE
8
BLACK
6
CONTINUOUS
10
118.116
20
-87.5517
11
117.994
21
-87.5303
0
LINE
8
BLACK
6
CONTINUOUS
10
117.994
20
-87.5303
11
117.887
21
-87.4686
0
LINE
8
BLACK
6
CONTINUOUS
10
117.887
20
-87.4686
11
117.808
21
-87.374
0
LINE
8
BLACK
6
CONTINUOUS
10
117.808
20
-87.374
11
117.766
21
-87.258
0
LINE
8
BLACK
6
CONTINUOUS
10
117.766
20
-87.258
11
117.766
21
-87.1346
0
LINE
8
BLACK
6
CONTINUOUS
10
117.766
20
-87.1346
11
117.808
21
-87.0186
0
LINE
8
BLACK
6
CONTINUOUS
10
117.808
20
-87.0186
11
117.887
21
-86.9241
0
LINE
8
BLACK
6
CONTINUOUS
10
117.887
20
-86.9241
11
117.994
21
-86.8624
0
LINE
8
BLACK
6
CONTINUOUS
10
117.994
20
-86.8624
11
118.016
21
-86.8586
0
LINE
8
BLACK
6
CONTINUOUS
10
118.016
20
-86.8586
11
118.016
21
-86.6926
0
LINE
8
BLACK
6
CONTINUOUS
10
118.016
20
-86.6926
11
118.016
21
-86.6926
0
LINE
8
BLACK
6
CONTINUOUS
10
118.016
20
-86.6926
11
118.016
21
-85
0
LINE
8
BLACK
6
CONTINUOUS
10
118.016
20
-85
11
116.361
21
-85
0
LINE
8
BLACK
6
CONTINUOUS
10
116.361
20
-85
11
116.333
21
-85.0777
0
LINE
8
BLACK
6
CONTINUOUS
10
116.333
20
-85.0777
11
116.253
21
-85.1723
0
LINE
8
BLACK
6
CONTINUOUS
10
116.253
20
-85.1723
11
116.147
21
-85.234
0
LINE
8
BLACK
6
CONTINUOUS
10
116.147
20
-85.234
11
116.025
21
-85.2554
0
LINE
8
BLACK
6
CONTINUOUS
10
116.025
20
-85.2554
11
115.903
21
-85.234
0
LINE
8
BLACK
6
CONTINUOUS
10
115.903
20
-85.234
11
115.797
21
-85.1723
0
LINE
8
BLACK
6
CONTINUOUS
10
115.797
20
-85.1723
11
115.717
21
-85.0777
0
LINE
8
BLACK
6
CONTINUOUS
10
115.717
20
-85.0777
11
115.675
21
-84.9617
0
LINE
8
BLACK
6
CONTINUOUS
10
115.675
20
-84.9617
11
115.675
21
-84.8383
0
LINE
8
BLACK
6
CONTINUOUS
10
115.675
20
-84.8383
11
115.717
21
-84.7223
0
LINE
8
BLACK
6
CONTINUOUS
10
115.717
20
-84.7223
11
115.797
21
-84.6277
0
LINE
8
BLACK
6
CONTINUOUS
10
115.797
20
-84.6277
11
115.903
21
-84.566
0
LINE
8
BLACK
6
CONTINUOUS
10
115.903
20
-84.566
11
116.025
21
-84.5446
0
LINE
8
BLACK
6
CONTINUOUS
10
116.025
20
-84.5446
11
116.147
21
-84.566
0
LINE
8
BLACK
6
CONTINUOUS
10
116.147
20
-84.566
11
116.253
21
-84.6277
0
LINE
8
BLACK
6
CONTINUOUS
10
116.253
20
-84.6277
11
116.333
21
-84.7223
0
LINE
8
BLACK
6
CONTINUOUS
10
116.333
20
-84.7223
11
116.361
21
-84.8
0
LINE
8
BLACK
6
CONTINUOUS
10
116.361
20
-84.8
11
118.016
21
-84.8
0
LINE
8
BLACK
6
CONTINUOUS
10
118.016
20
-84.8
11
118.016
21
-83.3956
0
LINE
8
BLACK
6
CONTINUOUS
10
118.016
20
-83.3956
11
118.015
21
-83.3823
0
LINE
8
BLACK
6
CONTINUOUS
10
118.015
20
-83.3823
11
118.018
21
-83.3695
0
LINE
8
BLACK
6
CONTINUOUS
10
118.018
20
-83.3695
11
118.02
21
-83.3565
0
LINE
8
BLACK
6
CONTINUOUS
10
118.02
20
-83.3565
11
118.023
21
-83.3526
0
LINE
8
BLACK
6
CONTINUOUS
10
118.023
20
-83.3526
11
118.024
21
-83.3483
0
LINE
8
BLACK
6
CONTINUOUS
10
118.024
20
-83.3483
11
118.031
21
-83.3374
0
LINE
8
BLACK
6
CONTINUOUS
10
118.031
20
-83.3374
11
118.038
21
-83.3259
0
LINE
8
BLACK
6
CONTINUOUS
10
118.038
20
-83.3259
11
118.048
21
-83.3174
0
LINE
8
BLACK
6
CONTINUOUS
10
118.048
20
-83.3174
11
118.676
21
-82.6894
0
LINE
8
BLACK
6
CONTINUOUS
10
118.676
20
-82.6894
11
118.637
21
-82.5817
0
LINE
8
BLACK
6
CONTINUOUS
10
118.637
20
-82.5817
11
118.637
21
-82.4583
0
LINE
8
BLACK
6
CONTINUOUS
10
118.637
20
-82.4583
11
118.679
21
-82.3423
0
LINE
8
BLACK
6
CONTINUOUS
10
118.679
20
-82.3423
11
118.758
21
-82.2478
0
LINE
8
BLACK
6
CONTINUOUS
10
118.758
20
-82.2478
11
118.865
21
-82.1861
0
LINE
8
BLACK
6
CONTINUOUS
10
118.865
20
-82.1861
11
118.987
21
-82.1646
0
LINE
8
BLACK
6
CONTINUOUS
10
118.987
20
-82.1646
11
119.108
21
-82.1861
0
LINE
8
BLACK
6
CONTINUOUS
10
119.108
20
-82.1861
11
119.215
21
-82.2478
0
LINE
8
BLACK
6
CONTINUOUS
10
119.215
20
-82.2478
11
119.295
21
-82.3423
0
LINE
8
BLACK
6
CONTINUOUS
10
119.295
20
-82.3423
11
119.337
21
-82.4583
0
LINE
8
BLACK
6
CONTINUOUS
10
119.337
20
-82.4583
11
119.337
21
-82.5817
0
LINE
8
BLACK
6
CONTINUOUS
10
119.337
20
-82.5817
11
119.295
21
-82.6977
0
LINE
8
BLACK
6
CONTINUOUS
10
119.295
20
-82.6977
11
119.215
21
-82.7923
0
LINE
8
BLACK
6
CONTINUOUS
10
119.215
20
-82.7923
11
119.108
21
-82.854
0
LINE
8
BLACK
6
CONTINUOUS
10
119.108
20
-82.854
11
118.987
21
-82.8754
0
LINE
8
BLACK
6
CONTINUOUS
10
118.987
20
-82.8754
11
118.865
21
-82.854
0
LINE
8
BLACK
6
CONTINUOUS
10
118.865
20
-82.854
11
118.82
21
-82.828
0
LINE
8
BLACK
6
CONTINUOUS
10
118.82
20
-82.828
11
118.216
21
-83.4326
0
LINE
8
BLACK
6
CONTINUOUS
10
118.216
20
-83.4326
11
118.216
21
-86.8586
0
LINE
8
BLACK
6
CONTINUOUS
10
118.216
20
-86.8586
11
118.237
21
-86.8624
0
LINE
8
BLACK
6
CONTINUOUS
10
120.322
20
-82.466
11
120.428
21
-82.5278
0
LINE
8
BLACK
6
CONTINUOUS
10
120.428
20
-82.5278
11
120.508
21
-82.6223
0
LINE
8
BLACK
6
CONTINUOUS
10
120.508
20
-82.6223
11
120.55
21
-82.7383
0
LINE
8
BLACK
6
CONTINUOUS
10
120.55
20
-82.7383
11
120.55
21
-82.8617
0
LINE
8
BLACK
6
CONTINUOUS
10
120.55
20
-82.8617
11
120.54
21
-82.8885
0
LINE
8
BLACK
6
CONTINUOUS
10
120.54
20
-82.8885
11
122.231
21
-84.5791
0
LINE
8
BLACK
6
CONTINUOUS
10
122.231
20
-84.5791
11
122.253
21
-84.566
0
LINE
8
BLACK
6
CONTINUOUS
10
122.253
20
-84.566
11
122.375
21
-84.5446
0
LINE
8
BLACK
6
CONTINUOUS
10
122.375
20
-84.5446
11
122.497
21
-84.566
0
LINE
8
BLACK
6
CONTINUOUS
10
122.497
20
-84.566
11
122.603
21
-84.6277
0
LINE
8
BLACK
6
CONTINUOUS
10
122.603
20
-84.6277
11
122.683
21
-84.7223
0
LINE
8
BLACK
6
CONTINUOUS
10
122.683
20
-84.7223
11
122.725
21
-84.8383
0
LINE
8
BLACK
6
CONTINUOUS
10
122.725
20
-84.8383
11
122.725
21
-84.9617
0
LINE
8
BLACK
6
CONTINUOUS
10
122.725
20
-84.9617
11
122.683
21
-85.0777
0
LINE
8
BLACK
6
CONTINUOUS
10
122.683
20
-85.0777
11
122.603
21
-85.1723
0
LINE
8
BLACK
6
CONTINUOUS
10
122.603
20
-85.1723
11
122.497
21
-85.234
0
LINE
8
BLACK
6
CONTINUOUS
10
122.497
20
-85.234
11
122.375
21
-85.2554
0
LINE
8
BLACK
6
CONTINUOUS
10
122.375
20
-85.2554
11
122.253
21
-85.234
0
LINE
8
BLACK
6
CONTINUOUS
10
122.253
20
-85.234
11
122.147
21
-85.1723
0
LINE
8
BLACK
6
CONTINUOUS
10
122.147
20
-85.1723
11
122.067
21
-85.0777
0
LINE
8
BLACK
6
CONTINUOUS
10
122.067
20
-85.0777
11
122.025
21
-84.9617
0
LINE
8
BLACK
6
CONTINUOUS
10
122.025
20
-84.9617
11
122.025
21
-84.8383
0
LINE
8
BLACK
6
CONTINUOUS
10
122.025
20
-84.8383
11
122.055
21
-84.7565
0
LINE
8
BLACK
6
CONTINUOUS
10
122.055
20
-84.7565
11
120.392
21
-83.0935
0
LINE
8
BLACK
6
CONTINUOUS
10
120.392
20
-83.0935
11
120.322
21
-83.134
0
LINE
8
BLACK
6
CONTINUOUS
10
120.322
20
-83.134
11
120.2
21
-83.1554
0
LINE
8
BLACK
6
CONTINUOUS
10
120.2
20
-83.1554
11
120.078
21
-83.134
0
LINE
8
BLACK
6
CONTINUOUS
10
120.078
20
-83.134
11
119.972
21
-83.0723
0
LINE
8
BLACK
6
CONTINUOUS
10
119.972
20
-83.0723
11
119.892
21
-82.9777
0
LINE
8
BLACK
6
CONTINUOUS
10
119.892
20
-82.9777
11
119.85
21
-82.8617
0
LINE
8
BLACK
6
CONTINUOUS
10
119.85
20
-82.8617
11
119.85
21
-82.7383
0
LINE
8
BLACK
6
CONTINUOUS
10
119.85
20
-82.7383
11
119.892
21
-82.6223
0
LINE
8
BLACK
6
CONTINUOUS
10
119.892
20
-82.6223
11
119.972
21
-82.5278
0
LINE
8
BLACK
6
CONTINUOUS
10
119.972
20
-82.5278
11
120.078
21
-82.466
0
LINE
8
BLACK
6
CONTINUOUS
10
120.078
20
-82.466
11
120.2
21
-82.4446
0
LINE
8
BLACK
6
CONTINUOUS
10
120.2
20
-82.4446
11
120.322
21
-82.466
0
LINE
8
BLACK
6
CONTINUOUS
10
106.213
20
-85.2612
11
106.487
21
-85.4199
0
LINE
8
BLACK
6
CONTINUOUS
10
106.487
20
-85.4199
11
106.691
21
-85.6631
0
LINE
8
BLACK
6
CONTINUOUS
10
106.691
20
-85.6631
11
106.8
21
-85.9613
0
LINE
8
BLACK
6
CONTINUOUS
10
106.8
20
-85.9613
11
106.8
21
-86.2787
0
LINE
8
BLACK
6
CONTINUOUS
10
106.8
20
-86.2787
11
106.691
21
-86.5769
0
LINE
8
BLACK
6
CONTINUOUS
10
106.691
20
-86.5769
11
106.487
21
-86.8201
0
LINE
8
BLACK
6
CONTINUOUS
10
106.487
20
-86.8201
11
106.213
21
-86.9788
0
LINE
8
BLACK
6
CONTINUOUS
10
106.213
20
-86.9788
11
105.979
21
-87.02
0
LINE
8
BLACK
6
CONTINUOUS
10
105.979
20
-87.02
11
104.021
21
-87.02
0
LINE
8
BLACK
6
CONTINUOUS
10
104.021
20
-87.02
11
103.787
21
-86.9788
0
LINE
8
BLACK
6
CONTINUOUS
10
103.787
20
-86.9788
11
103.513
21
-86.8201
0
LINE
8
BLACK
6
CONTINUOUS
10
103.513
20
-86.8201
11
103.309
21
-86.5769
0
LINE
8
BLACK
6
CONTINUOUS
10
103.309
20
-86.5769
11
103.2
21
-86.2787
0
LINE
8
BLACK
6
CONTINUOUS
10
103.2
20
-86.2787
11
103.2
21
-85.9613
0
LINE
8
BLACK
6
CONTINUOUS
10
103.2
20
-85.9613
11
103.309
21
-85.6631
0
LINE
8
BLACK
6
CONTINUOUS
10
103.309
20
-85.6631
11
103.513
21
-85.4199
0
LINE
8
BLACK
6
CONTINUOUS
10
103.513
20
-85.4199
11
103.787
21
-85.2612
0
LINE
8
BLACK
6
CONTINUOUS
10
103.787
20
-85.2612
11
104.021
21
-85.22
0
LINE
8
BLACK
6
CONTINUOUS
10
104.021
20
-85.22
11
105.979
21
-85.22
0
LINE
8
BLACK
6
CONTINUOUS
10
105.979
20
-85.22
11
106.213
21
-85.2612
0
LINE
8
BLACK
6
CONTINUOUS
10
106.213
20
-80.1812
11
106.487
21
-80.3399
0
LINE
8
BLACK
6
CONTINUOUS
10
106.487
20
-80.3399
11
106.691
21
-80.5831
0
LINE
8
BLACK
6
CONTINUOUS
10
106.691
20
-80.5831
11
106.8
21
-80.8813
0
LINE
8
BLACK
6
CONTINUOUS
10
106.8
20
-80.8813
11
106.8
21
-81.1987
0
LINE
8
BLACK
6
CONTINUOUS
10
106.8
20
-81.1987
11
106.691
21
-81.4969
0
LINE
8
BLACK
6
CONTINUOUS
10
106.691
20
-81.4969
11
106.487
21
-81.7401
0
LINE
8
BLACK
6
CONTINUOUS
10
106.487
20
-81.7401
11
106.213
21
-81.8988
0
LINE
8
BLACK
6
CONTINUOUS
10
106.213
20
-81.8988
11
105.979
21
-81.94
0
LINE
8
BLACK
6
CONTINUOUS
10
105.979
20
-81.94
11
104.021
21
-81.94
0
LINE
8
BLACK
6
CONTINUOUS
10
104.021
20
-81.94
11
103.787
21
-81.8988
0
LINE
8
BLACK
6
CONTINUOUS
10
103.787
20
-81.8988
11
103.513
21
-81.7401
0
LINE
8
BLACK
6
CONTINUOUS
10
103.513
20
-81.7401
11
103.309
21
-81.4969
0
LINE
8
BLACK
6
CONTINUOUS
10
103.309
20
-81.4969
11
103.2
21
-81.1987
0
LINE
8
BLACK
6
CONTINUOUS
10
103.2
20
-81.1987
11
103.2
21
-80.8813
0
LINE
8
BLACK
6
CONTINUOUS
10
103.2
20
-80.8813
11
103.309
21
-80.5831
0
LINE
8
BLACK
6
CONTINUOUS
10
103.309
20
-80.5831
11
103.513
21
-80.3399
0
LINE
8
BLACK
6
CONTINUOUS
10
103.513
20
-80.3399
11
103.787
21
-80.1812
0
LINE
8
BLACK
6
CONTINUOUS
10
103.787
20
-80.1812
11
104.021
21
-80.14
0
LINE
8
BLACK
6
CONTINUOUS
10
104.021
20
-80.14
11
105.979
21
-80.14
0
LINE
8
BLACK
6
CONTINUOUS
10
105.979
20
-80.14
11
106.213
21
-80.1812
0
LINE
8
BLACK
6
CONTINUOUS
10
120.795
20
-71.1889
11
121.055
21
-71.3388
0
LINE
8
BLACK
6
CONTINUOUS
10
121.055
20
-71.3388
11
121.247
21
-71.5684
0
LINE
8
BLACK
6
CONTINUOUS
10
121.247
20
-71.5684
11
121.35
21
-71.8501
0
LINE
8
BLACK
6
CONTINUOUS
10
121.35
20
-71.8501
11
121.35
21
-72.1499
0
LINE
8
BLACK
6
CONTINUOUS
10
121.35
20
-72.1499
11
121.247
21
-72.4316
0
LINE
8
BLACK
6
CONTINUOUS
10
121.247
20
-72.4316
11
121.055
21
-72.6612
0
LINE
8
BLACK
6
CONTINUOUS
10
121.055
20
-72.6612
11
120.795
21
-72.8111
0
LINE
8
BLACK
6
CONTINUOUS
10
120.795
20
-72.8111
11
120.5
21
-72.8631
0
LINE
8
BLACK
6
CONTINUOUS
10
120.5
20
-72.8631
11
120.205
21
-72.8111
0
LINE
8
BLACK
6
CONTINUOUS
10
120.205
20
-72.8111
11
119.945
21
-72.6612
0
LINE
8
BLACK
6
CONTINUOUS
10
119.945
20
-72.6612
11
119.753
21
-72.4316
0
LINE
8
BLACK
6
CONTINUOUS
10
119.753
20
-72.4316
11
119.65
21
-72.1499
0
LINE
8
BLACK
6
CONTINUOUS
10
119.65
20
-72.1499
11
119.65
21
-71.8501
0
LINE
8
BLACK
6
CONTINUOUS
10
119.65
20
-71.8501
11
119.753
21
-71.5684
0
LINE
8
BLACK
6
CONTINUOUS
10
119.753
20
-71.5684
11
119.945
21
-71.3388
0
LINE
8
BLACK
6
CONTINUOUS
10
119.945
20
-71.3388
11
120.205
21
-71.1889
0
LINE
8
BLACK
6
CONTINUOUS
10
120.205
20
-71.1889
11
120.5
21
-71.1369
0
LINE
8
BLACK
6
CONTINUOUS
10
120.5
20
-71.1369
11
120.795
21
-71.1889
0
LINE
8
BLACK
6
CONTINUOUS
10
118.85
20
-72.85
11
117.15
21
-72.85
0
LINE
8
BLACK
6
CONTINUOUS
10
117.15
20
-72.85
11
117.15
21
-71.15
0
LINE
8
BLACK
6
CONTINUOUS
10
117.15
20
-71.15
11
118.85
21
-71.15
0
LINE
8
BLACK
6
CONTINUOUS
10
118.85
20
-71.15
11
118.85
21
-72.85
0
LINE
8
BLACK
6
CONTINUOUS
10
120.795
20
-69.1889
11
121.055
21
-69.3388
0
LINE
8
BLACK
6
CONTINUOUS
10
121.055
20
-69.3388
11
121.247
21
-69.5684
0
LINE
8
BLACK
6
CONTINUOUS
10
121.247
20
-69.5684
11
121.35
21
-69.8501
0
LINE
8
BLACK
6
CONTINUOUS
10
121.35
20
-69.8501
11
121.35
21
-70.1499
0
LINE
8
BLACK
6
CONTINUOUS
10
121.35
20
-70.1499
11
121.247
21
-70.4316
0
LINE
8
BLACK
6
CONTINUOUS
10
121.247
20
-70.4316
11
121.055
21
-70.6612
0
LINE
8
BLACK
6
CONTINUOUS
10
121.055
20
-70.6612
11
120.795
21
-70.8111
0
LINE
8
BLACK
6
CONTINUOUS
10
120.795
20
-70.8111
11
120.5
21
-70.8631
0
LINE
8
BLACK
6
CONTINUOUS
10
120.5
20
-70.8631
11
120.205
21
-70.8111
0
LINE
8
BLACK
6
CONTINUOUS
10
120.205
20
-70.8111
11
119.945
21
-70.6612
0
LINE
8
BLACK
6
CONTINUOUS
10
119.945
20
-70.6612
11
119.753
21
-70.4316
0
LINE
8
BLACK
6
CONTINUOUS
10
119.753
20
-70.4316
11
119.65
21
-70.1499
0
LINE
8
BLACK
6
CONTINUOUS
10
119.65
20
-70.1499
11
119.65
21
-69.8501
0
LINE
8
BLACK
6
CONTINUOUS
10
119.65
20
-69.8501
11
119.753
21
-69.5684
0
LINE
8
BLACK
6
CONTINUOUS
10
119.753
20
-69.5684
11
119.945
21
-69.3388
0
LINE
8
BLACK
6
CONTINUOUS
10
119.945
20
-69.3388
11
120.205
21
-69.1889
0
LINE
8
BLACK
6
CONTINUOUS
10
120.205
20
-69.1889
11
120.5
21
-69.1369
0
LINE
8
BLACK
6
CONTINUOUS
10
120.5
20
-69.1369
11
120.795
21
-69.1889
0
LINE
8
BLACK
6
CONTINUOUS
10
106.635
20
-69.9951
11
106.711
21
-70.0385
0
LINE
8
BLACK
6
CONTINUOUS
10
106.711
20
-70.0385
11
106.766
21
-70.1051
0
LINE
8
BLACK
6
CONTINUOUS
10
106.766
20
-70.1051
11
106.8
21
-70.2302
0
LINE
8
BLACK
6
CONTINUOUS
10
106.8
20
-70.2302
11
106.8
21
-71.5298
0
LINE
8
BLACK
6
CONTINUOUS
10
106.8
20
-71.5298
11
106.785
21
-71.6154
0
LINE
8
BLACK
6
CONTINUOUS
10
106.785
20
-71.6154
11
106.741
21
-71.6906
0
LINE
8
BLACK
6
CONTINUOUS
10
106.741
20
-71.6906
11
106.675
21
-71.7465
0
LINE
8
BLACK
6
CONTINUOUS
10
106.675
20
-71.7465
11
106.55
21
-71.78
0
LINE
8
BLACK
6
CONTINUOUS
10
106.55
20
-71.78
11
103.45
21
-71.78
0
LINE
8
BLACK
6
CONTINUOUS
10
103.45
20
-71.78
11
103.365
21
-71.7649
0
LINE
8
BLACK
6
CONTINUOUS
10
103.365
20
-71.7649
11
103.289
21
-71.7215
0
LINE
8
BLACK
6
CONTINUOUS
10
103.289
20
-71.7215
11
103.234
21
-71.6549
0
LINE
8
BLACK
6
CONTINUOUS
10
103.234
20
-71.6549
11
103.2
21
-71.5298
0
LINE
8
BLACK
6
CONTINUOUS
10
103.2
20
-71.5298
11
103.2
21
-70.2302
0
LINE
8
BLACK
6
CONTINUOUS
10
103.2
20
-70.2302
11
103.215
21
-70.1446
0
LINE
8
BLACK
6
CONTINUOUS
10
103.215
20
-70.1446
11
103.259
21
-70.0694
0
LINE
8
BLACK
6
CONTINUOUS
10
103.259
20
-70.0694
11
103.325
21
-70.0135
0
LINE
8
BLACK
6
CONTINUOUS
10
103.325
20
-70.0135
11
103.45
21
-69.98
0
LINE
8
BLACK
6
CONTINUOUS
10
103.45
20
-69.98
11
106.55
21
-69.98
0
LINE
8
BLACK
6
CONTINUOUS
10
106.55
20
-69.98
11
106.635
21
-69.9951
0
LINE
8
BLACK
6
CONTINUOUS
10
103.322
20
-63.566
11
103.428
21
-63.6277
0
LINE
8
BLACK
6
CONTINUOUS
10
103.428
20
-63.6277
11
103.508
21
-63.7223
0
LINE
8
BLACK
6
CONTINUOUS
10
103.508
20
-63.7223
11
103.536
21
-63.8
0
LINE
8
BLACK
6
CONTINUOUS
10
103.536
20
-63.8
11
106.953
21
-63.8
0
LINE
8
BLACK
6
CONTINUOUS
10
106.953
20
-63.8
11
106.972
21
-63.7777
0
LINE
8
BLACK
6
CONTINUOUS
10
106.972
20
-63.7777
11
107.078
21
-63.716
0
LINE
8
BLACK
6
CONTINUOUS
10
107.078
20
-63.716
11
107.2
21
-63.6946
0
LINE
8
BLACK
6
CONTINUOUS
10
107.2
20
-63.6946
11
107.322
21
-63.716
0
LINE
8
BLACK
6
CONTINUOUS
10
107.322
20
-63.716
11
107.428
21
-63.7777
0
LINE
8
BLACK
6
CONTINUOUS
10
107.428
20
-63.7777
11
107.508
21
-63.8723
0
LINE
8
BLACK
6
CONTINUOUS
10
107.508
20
-63.8723
11
107.55
21
-63.9883
0
LINE
8
BLACK
6
CONTINUOUS
10
107.55
20
-63.9883
11
107.55
21
-64.1117
0
LINE
8
BLACK
6
CONTINUOUS
10
107.55
20
-64.1117
11
107.508
21
-64.2277
0
LINE
8
BLACK
6
CONTINUOUS
10
107.508
20
-64.2277
11
107.428
21
-64.3223
0
LINE
8
BLACK
6
CONTINUOUS
10
107.428
20
-64.3223
11
107.322
21
-64.384
0
LINE
8
BLACK
6
CONTINUOUS
10
107.322
20
-64.384
11
107.2
21
-64.4054
0
LINE
8
BLACK
6
CONTINUOUS
10
107.2
20
-64.4054
11
107.078
21
-64.384
0
LINE
8
BLACK
6
CONTINUOUS
10
107.078
20
-64.384
11
106.972
21
-64.3223
0
LINE
8
BLACK
6
CONTINUOUS
10
106.972
20
-64.3223
11
106.892
21
-64.2277
0
LINE
8
BLACK
6
CONTINUOUS
10
106.892
20
-64.2277
11
106.85
21
-64.1117
0
LINE
8
BLACK
6
CONTINUOUS
10
106.85
20
-64.1117
11
106.85
21
-64
0
LINE
8
BLACK
6
CONTINUOUS
10
106.85
20
-64
11
103.536
21
-64
0
LINE
8
BLACK
6
CONTINUOUS
10
103.536
20
-64
11
103.508
21
-64.0777
0
LINE
8
BLACK
6
CONTINUOUS
10
103.508
20
-64.0777
11
103.428
21
-64.1722
0
LINE
8
BLACK
6
CONTINUOUS
10
103.428
20
-64.1722
11
103.322
21
-64.234
0
LINE
8
BLACK
6
CONTINUOUS
10
103.322
20
-64.234
11
103.2
21
-64.2554
0
LINE
8
BLACK
6
CONTINUOUS
10
103.2
20
-64.2554
11
103.078
21
-64.234
0
LINE
8
BLACK
6
CONTINUOUS
10
103.078
20
-64.234
11
102.972
21
-64.1722
0
LINE
8
BLACK
6
CONTINUOUS
10
102.972
20
-64.1722
11
102.892
21
-64.0777
0
LINE
8
BLACK
6
CONTINUOUS
10
102.892
20
-64.0777
11
102.85
21
-63.9617
0
LINE
8
BLACK
6
CONTINUOUS
10
102.85
20
-63.9617
11
102.85
21
-63.8383
0
LINE
8
BLACK
6
CONTINUOUS
10
102.85
20
-63.8383
11
102.892
21
-63.7223
0
LINE
8
BLACK
6
CONTINUOUS
10
102.892
20
-63.7223
11
102.972
21
-63.6277
0
LINE
8
BLACK
6
CONTINUOUS
10
102.972
20
-63.6277
11
103.078
21
-63.566
0
LINE
8
BLACK
6
CONTINUOUS
10
103.078
20
-63.566
11
103.2
21
-63.5446
0
LINE
8
BLACK
6
CONTINUOUS
10
103.2
20
-63.5446
11
103.322
21
-63.566
0
LINE
8
BLACK
6
CONTINUOUS
10
127.122
20
-60.666
11
127.228
21
-60.7277
0
LINE
8
BLACK
6
CONTINUOUS
10
127.228
20
-60.7277
11
127.308
21
-60.8223
0
LINE
8
BLACK
6
CONTINUOUS
10
127.308
20
-60.8223
11
127.35
21
-60.9383
0
LINE
8
BLACK
6
CONTINUOUS
10
127.35
20
-60.9383
11
127.35
21
-61.0617
0
LINE
8
BLACK
6
CONTINUOUS
10
127.35
20
-61.0617
11
127.308
21
-61.1777
0
LINE
8
BLACK
6
CONTINUOUS
10
127.308
20
-61.1777
11
127.228
21
-61.2723
0
LINE
8
BLACK
6
CONTINUOUS
10
127.228
20
-61.2723
11
127.122
21
-61.334
0
LINE
8
BLACK
6
CONTINUOUS
10
127.122
20
-61.334
11
127
21
-61.3554
0
LINE
8
BLACK
6
CONTINUOUS
10
127
20
-61.3554
11
126.878
21
-61.334
0
LINE
8
BLACK
6
CONTINUOUS
10
126.878
20
-61.334
11
126.772
21
-61.2723
0
LINE
8
BLACK
6
CONTINUOUS
10
126.772
20
-61.2723
11
126.692
21
-61.1777
0
LINE
8
BLACK
6
CONTINUOUS
10
126.692
20
-61.1777
11
126.65
21
-61.0617
0
LINE
8
BLACK
6
CONTINUOUS
10
126.65
20
-61.0617
11
126.65
21
-60.9383
0
LINE
8
BLACK
6
CONTINUOUS
10
126.65
20
-60.9383
11
126.692
21
-60.8223
0
LINE
8
BLACK
6
CONTINUOUS
10
126.692
20
-60.8223
11
126.772
21
-60.7277
0
LINE
8
BLACK
6
CONTINUOUS
10
126.772
20
-60.7277
11
126.878
21
-60.666
0
LINE
8
BLACK
6
CONTINUOUS
10
126.878
20
-60.666
11
127
21
-60.6446
0
LINE
8
BLACK
6
CONTINUOUS
10
127
20
-60.6446
11
127.122
21
-60.666
0
LINE
8
BLACK
6
CONTINUOUS
10
122.122
20
-60.666
11
122.228
21
-60.7277
0
LINE
8
BLACK
6
CONTINUOUS
10
122.228
20
-60.7277
11
122.308
21
-60.8223
0
LINE
8
BLACK
6
CONTINUOUS
10
122.308
20
-60.8223
11
122.35
21
-60.9383
0
LINE
8
BLACK
6
CONTINUOUS
10
122.35
20
-60.9383
11
122.35
21
-61.0617
0
LINE
8
BLACK
6
CONTINUOUS
10
122.35
20
-61.0617
11
122.308
21
-61.1777
0
LINE
8
BLACK
6
CONTINUOUS
10
122.308
20
-61.1777
11
122.228
21
-61.2723
0
LINE
8
BLACK
6
CONTINUOUS
10
122.228
20
-61.2723
11
122.122
21
-61.334
0
LINE
8
BLACK
6
CONTINUOUS
10
122.122
20
-61.334
11
122
21
-61.3554
0
LINE
8
BLACK
6
CONTINUOUS
10
122
20
-61.3554
11
121.878
21
-61.334
0
LINE
8
BLACK
6
CONTINUOUS
10
121.878
20
-61.334
11
121.772
21
-61.2723
0
LINE
8
BLACK
6
CONTINUOUS
10
121.772
20
-61.2723
11
121.692
21
-61.1777
0
LINE
8
BLACK
6
CONTINUOUS
10
121.692
20
-61.1777
11
121.65
21
-61.0617
0
LINE
8
BLACK
6
CONTINUOUS
10
121.65
20
-61.0617
11
121.65
21
-60.9383
0
LINE
8
BLACK
6
CONTINUOUS
10
121.65
20
-60.9383
11
121.692
21
-60.8223
0
LINE
8
BLACK
6
CONTINUOUS
10
121.692
20
-60.8223
11
121.772
21
-60.7277
0
LINE
8
BLACK
6
CONTINUOUS
10
121.772
20
-60.7277
11
121.878
21
-60.666
0
LINE
8
BLACK
6
CONTINUOUS
10
121.878
20
-60.666
11
122
21
-60.6446
0
LINE
8
BLACK
6
CONTINUOUS
10
122
20
-60.6446
11
122.122
21
-60.666
0
LINE
8
BLACK
6
CONTINUOUS
10
117.122
20
-60.666
11
117.228
21
-60.7277
0
LINE
8
BLACK
6
CONTINUOUS
10
117.228
20
-60.7277
11
117.308
21
-60.8223
0
LINE
8
BLACK
6
CONTINUOUS
10
117.308
20
-60.8223
11
117.35
21
-60.9383
0
LINE
8
BLACK
6
CONTINUOUS
10
117.35
20
-60.9383
11
117.35
21
-61.0617
0
LINE
8
BLACK
6
CONTINUOUS
10
117.35
20
-61.0617
11
117.308
21
-61.1777
0
LINE
8
BLACK
6
CONTINUOUS
10
117.308
20
-61.1777
11
117.228
21
-61.2723
0
LINE
8
BLACK
6
CONTINUOUS
10
117.228
20
-61.2723
11
117.122
21
-61.334
0
LINE
8
BLACK
6
CONTINUOUS
10
117.122
20
-61.334
11
117
21
-61.3554
0
LINE
8
BLACK
6
CONTINUOUS
10
117
20
-61.3554
11
116.878
21
-61.334
0
LINE
8
BLACK
6
CONTINUOUS
10
116.878
20
-61.334
11
116.772
21
-61.2723
0
LINE
8
BLACK
6
CONTINUOUS
10
116.772
20
-61.2723
11
116.692
21
-61.1777
0
LINE
8
BLACK
6
CONTINUOUS
10
116.692
20
-61.1777
11
116.65
21
-61.0617
0
LINE
8
BLACK
6
CONTINUOUS
10
116.65
20
-61.0617
11
116.65
21
-60.9383
0
LINE
8
BLACK
6
CONTINUOUS
10
116.65
20
-60.9383
11
116.692
21
-60.8223
0
LINE
8
BLACK
6
CONTINUOUS
10
116.692
20
-60.8223
11
116.772
21
-60.7277
0
LINE
8
BLACK
6
CONTINUOUS
10
116.772
20
-60.7277
11
116.878
21
-60.666
0
LINE
8
BLACK
6
CONTINUOUS
10
116.878
20
-60.666
11
117
21
-60.6446
0
LINE
8
BLACK
6
CONTINUOUS
10
117
20
-60.6446
11
117.122
21
-60.666
0
LINE
8
BLACK
6
CONTINUOUS
10
112.122
20
-60.666
11
112.228
21
-60.7277
0
LINE
8
BLACK
6
CONTINUOUS
10
112.228
20
-60.7277
11
112.308
21
-60.8223
0
LINE
8
BLACK
6
CONTINUOUS
10
112.308
20
-60.8223
11
112.35
21
-60.9383
0
LINE
8
BLACK
6
CONTINUOUS
10
112.35
20
-60.9383
11
112.35
21
-61.0617
0
LINE
8
BLACK
6
CONTINUOUS
10
112.35
20
-61.0617
11
112.308
21
-61.1777
0
LINE
8
BLACK
6
CONTINUOUS
10
112.308
20
-61.1777
11
112.228
21
-61.2723
0
LINE
8
BLACK
6
CONTINUOUS
10
112.228
20
-61.2723
11
112.122
21
-61.334
0
LINE
8
BLACK
6
CONTINUOUS
10
112.122
20
-61.334
11
112
21
-61.3554
0
LINE
8
BLACK
6
CONTINUOUS
10
112
20
-61.3554
11
111.878
21
-61.334
0
LINE
8
BLACK
6
CONTINUOUS
10
111.878
20
-61.334
11
111.772
21
-61.2723
0
LINE
8
BLACK
6
CONTINUOUS
10
111.772
20
-61.2723
11
111.692
21
-61.1777
0
LINE
8
BLACK
6
CONTINUOUS
10
111.692
20
-61.1777
11
111.65
21
-61.0617
0
LINE
8
BLACK
6
CONTINUOUS
10
111.65
20
-61.0617
11
111.65
21
-60.9383
0
LINE
8
BLACK
6
CONTINUOUS
10
111.65
20
-60.9383
11
111.692
21
-60.8223
0
LINE
8
BLACK
6
CONTINUOUS
10
111.692
20
-60.8223
11
111.772
21
-60.7277
0
LINE
8
BLACK
6
CONTINUOUS
10
111.772
20
-60.7277
11
111.878
21
-60.666
0
LINE
8
BLACK
6
CONTINUOUS
10
111.878
20
-60.666
11
112
21
-60.6446
0
LINE
8
BLACK
6
CONTINUOUS
10
112
20
-60.6446
11
112.122
21
-60.666
0
LINE
8
BLACK
6
CONTINUOUS
10
107.122
20
-60.666
11
107.228
21
-60.7277
0
LINE
8
BLACK
6
CONTINUOUS
10
107.228
20
-60.7277
11
107.308
21
-60.8223
0
LINE
8
BLACK
6
CONTINUOUS
10
107.308
20
-60.8223
11
107.35
21
-60.9383
0
LINE
8
BLACK
6
CONTINUOUS
10
107.35
20
-60.9383
11
107.35
21
-61.0617
0
LINE
8
BLACK
6
CONTINUOUS
10
107.35
20
-61.0617
11
107.308
21
-61.1777
0
LINE
8
BLACK
6
CONTINUOUS
10
107.308
20
-61.1777
11
107.228
21
-61.2723
0
LINE
8
BLACK
6
CONTINUOUS
10
107.228
20
-61.2723
11
107.122
21
-61.334
0
LINE
8
BLACK
6
CONTINUOUS
10
107.122
20
-61.334
11
107
21
-61.3554
0
LINE
8
BLACK
6
CONTINUOUS
10
107
20
-61.3554
11
106.878
21
-61.334
0
LINE
8
BLACK
6
CONTINUOUS
10
106.878
20
-61.334
11
106.772
21
-61.2723
0
LINE
8
BLACK
6
CONTINUOUS
10
106.772
20
-61.2723
11
106.692
21
-61.1777
0
LINE
8
BLACK
6
CONTINUOUS
10
106.692
20
-61.1777
11
106.65
21
-61.0617
0
LINE
8
BLACK
6
CONTINUOUS
10
106.65
20
-61.0617
11
106.65
21
-60.9383
0
LINE
8
BLACK
6
CONTINUOUS
10
106.65
20
-60.9383
11
106.692
21
-60.8223
0
LINE
8
BLACK
6
CONTINUOUS
10
106.692
20
-60.8223
11
106.772
21
-60.7277
0
LINE
8
BLACK
6
CONTINUOUS
10
106.772
20
-60.7277
11
106.878
21
-60.666
0
LINE
8
BLACK
6
CONTINUOUS
10
106.878
20
-60.666
11
107
21
-60.6446
0
LINE
8
BLACK
6
CONTINUOUS
10
107
20
-60.6446
11
107.122
21
-60.666
0
CIRCLE
8
BLACK
10
107
20
-61
40
0.2
0
CIRCLE
8
BLACK
10
112
20
-61
40
0.2
0
CIRCLE
8
BLACK
10
117
20
-61
40
0.2
0
CIRCLE
8
BLACK
10
122
20
-61
40
0.2
0
CIRCLE
8
BLACK
10
127
20
-61
40
0.2
0
CIRCLE
8
BLACK
10
125.1
20
-85.8
40
0.2
0
CIRCLE
8
BLACK
10
123.1
20
-81.1
40
0.2
0
CIRCLE
8
BLACK
10
164.1
20
-76.1
40
0.2
0
CIRCLE
8
BLACK
10
164.1
20
-64.4
40
0.3
0
CIRCLE
8
BLACK
10
169.1
20
-64.4
40
0.3
0
CIRCLE
8
BLACK
10
164.1
20
-69.4
40
0.3
0
CIRCLE
8
BLACK
10
169.1
20
-69.4
40
0.3
0
CIRCLE
8
BLACK
10
164.1
20
-73.5
40
0.3
0
CIRCLE
8
BLACK
10
168.7
20
-74.85
40
0.3
0
CIRCLE
8
BLACK
10
164.1
20
-78.7
40
0.2
0
CIRCLE
8
BLACK
10
168.7
20
-79.95
40
0.3
0
CIRCLE
8
BLACK
10
164.1
20
-84.4
40
0.3
0
CIRCLE
8
BLACK
10
169.1
20
-84.4
40
0.3
0
CIRCLE
8
BLACK
10
164.1
20
-88.4
40
0.3
0
CIRCLE
8
BLACK
10
169.1
20
-89.4
40
0.3
0
CIRCLE
8
BLACK
10
157.7
20
-71.5
40
0.3
0
CIRCLE
8
BLACK
10
157
20
-58
40
0.3
0
CIRCLE
8
BLACK
10
107
20
-58
40
0.3
0
CIRCLE
8
BLACK
10
161.6
20
-58
40
0.3
0
CIRCLE
8
BLACK
10
167.5
20
-81.8
40
0.3
0
CIRCLE
8
BLACK
10
164.1
20
-81
40
0.3
0
CIRCLE
8
BLACK
10
167.5
20
-72.8
40
0.3
0
CIRCLE
8
BLACK
10
114.2
20
-81.8
40
0.2
0
CIRCLE
8
BLACK
10
134.4
20
-71.7
40
0.2
0
CIRCLE
8
BLACK
10
126.2
20
-82.6
40
0.2
0
CIRCLE
8
BLACK
10
112
20
-58
40
0.3
0
CIRCLE
8
BLACK
10
117
20
-58
40
0.3
0
CIRCLE
8
BLACK
10
122
20
-58
40
0.3
0
CIRCLE
8
BLACK
10
127
20
-58
40
0.3
0
CIRCLE
8
BLACK
10
119
20
-67
40
0.3
0
CIRCLE
8
BLACK
10
137
20
-58
40
0.3
0
CIRCLE
8
BLACK
10
142
20
-58
40
0.3
0
CIRCLE
8
BLACK
10
147
20
-58
40
0.3
0
CIRCLE
8
BLACK
10
152
20
-58
40
0.3
0
CIRCLE
8
BLACK
10
137
20
-67
40
0.2
0
CIRCLE
8
BLACK
10
137
20
-62.6
40
0.2
0
CIRCLE
8
BLACK
10
151
20
-61.8
40
0.2
0
CIRCLE
8
BLACK
10
151
20
-63.7
40
0.2
0
CIRCLE
8
BLACK
10
152.5
20
-64.4
40
0.2
0
CIRCLE
8
BLACK
10
115
20
-90
40
0.2
0
CIRCLE
8
BLACK
10
120
20
-90
40
0.2
0
CIRCLE
8
BLACK
10
115
20
-95
40
0.2
0
CIRCLE
8
BLACK
10
120
20
-95
40
0.2
0
CIRCLE
8
BLACK
10
125
20
-95
40
0.2
0
CIRCLE
8
BLACK
10
102
20
-73
40
0.2
0
CIRCLE
8
BLACK
10
102
20
-78
40
0.2
0
CIRCLE
8
BLACK
10
102
20
-83
40
0.2
0
CIRCLE
8
BLACK
10
102
20
-88
40
0.2
0
CIRCLE
8
BLACK
10
108.2
20
-86.3
40
0.2
0
CIRCLE
8
BLACK
10
113
20
-74
40
0.2
0
CIRCLE
8
BLACK
10
134.8
20
-65.2
40
0.2
0
CIRCLE
8
BLACK
10
141.8
20
-65.8
40
0.2
0
CIRCLE
8
BLACK
10
134.4
20
-76.3
40
0.2
0
CIRCLE
8
BLACK
10
144.4
20
-71.7
40
0.2
0
CIRCLE
8
BLACK
10
149.4
20
-71.7
40
0.2
0
CIRCLE
8
BLACK
10
154.4
20
-71.7
40
0.2
0
CIRCLE
8
BLACK
10
159.4
20
-71.7
40
0.2
0
CIRCLE
8
BLACK
10
139.4
20
-76.3
40
0.2
0
CIRCLE
8
BLACK
10
144.4
20
-76.3
40
0.2
0
CIRCLE
8
BLACK
10
149.4
20
-76.3
40
0.2
0
CIRCLE
8
BLACK
10
154.4
20
-76.3
40
0.2
0
CIRCLE
8
BLACK
10
159.4
20
-76.3
40
0.2
0
CIRCLE
8
BLACK
10
139.4
20
-76.3
40
0.2
0
CIRCLE
8
BLACK
10
144.4
20
-76.3
40
0.2
0
CIRCLE
8
BLACK
10
149.4
20
-76.3
40
0.2
0
CIRCLE
8
BLACK
10
154.4
20
-76.3
40
0.2
0
CIRCLE
8
BLACK
10
159.4
20
-76.3
40
0.2
0
CIRCLE
8
BLACK
10
134.4
20
-81
40
0.2
0
CIRCLE
8
BLACK
10
139.4
20
-81
40
0.2
0
CIRCLE
8
BLACK
10
144.4
20
-81
40
0.2
0
CIRCLE
8
BLACK
10
149.4
20
-81
40
0.2
0
CIRCLE
8
BLACK
10
154.4
20
-81
40
0.2
0
CIRCLE
8
BLACK
10
159.4
20
-81
40
0.2
0
CIRCLE
8
BLACK
10
134.4
20
-85.7
40
0.2
0
CIRCLE
8
BLACK
10
139.4
20
-85.7
40
0.2
0
CIRCLE
8
BLACK
10
144.4
20
-85.7
40
0.2
0
CIRCLE
8
BLACK
10
149.4
20
-85.7
40
0.2
0
CIRCLE
8
BLACK
10
154.4
20
-85.7
40
0.2
0
CIRCLE
8
BLACK
10
159.4
20
-85.7
40
0.2
0
CIRCLE
8
BLACK
10
139.4
20
-85.7
40
0.2
0
CIRCLE
8
BLACK
10
144.4
20
-85.7
40
0.2
0
CIRCLE
8
BLACK
10
149.4
20
-85.7
40
0.2
0
CIRCLE
8
BLACK
10
154.4
20
-85.7
40
0.2
0
CIRCLE
8
BLACK
10
159.4
20
-85.7
40
0.2
0
CIRCLE
8
BLACK
10
134.4
20
-90.4
40
0.2
0
CIRCLE
8
BLACK
10
139.4
20
-90.4
40
0.2
0
CIRCLE
8
BLACK
10
144.4
20
-90.4
40
0.2
0
CIRCLE
8
BLACK
10
149.4
20
-90.4
40
0.2
0
CIRCLE
8
BLACK
10
154.4
20
-90.4
40
0.2
0
CIRCLE
8
BLACK
10
159.4
20
-90.4
40
0.2
0
CIRCLE
8
BLACK
10
134.4
20
-95.1
40
0.2
0
CIRCLE
8
BLACK
10
139.4
20
-95.1
40
0.2
0
CIRCLE
8
BLACK
10
144.4
20
-95.1
40
0.2
0
CIRCLE
8
BLACK
10
149.4
20
-95.1
40
0.2
0
CIRCLE
8
BLACK
10
154.4
20
-95.1
40
0.2
0
CIRCLE
8
BLACK
10
159.4
20
-95.1
40
0.2
0
CIRCLE
8
BLACK
10
131.4
20
-68.2
40
0.2
0
CIRCLE
8
BLACK
10
112.5
20
-85.3
40
0.2
0
CIRCLE
8
BLACK
10
119.4
20
-73.15
40
0.2
0
CIRCLE
8
BLACK
10
127.7
20
-77.5
40
0.2
0
CIRCLE
8
BLACK
10
117.2
20
-87.5
40
0.2
0
CIRCLE
8
BLACK
10
127.7
20
-87
40
0.2
0
CIRCLE
8
BLACK
10
117.987
20
-75.7873
40
0.2
0
CIRCLE
8
BLACK
10
124.5
20
-74.3
40
0.2
0
CIRCLE
8
BLACK
10
128.8
20
-74.3
40
0.2
0
CIRCLE
8
BLACK
10
113.8
20
-76.6
40
0.3
0
CIRCLE
8
BLACK
10
115.1
20
-79.7
40
0.25
0
CIRCLE
8
BLACK
10
110.5
20
-87.5
40
0.2
0
CIRCLE
8
BLACK
10
143.4
20
-67.5
40
0.2
0
CIRCLE
8
BLACK
10
103.2
20
-63.9
40
0.2
0
CIRCLE
8
BLACK
10
107.2
20
-64.05
40
0.2
0
CIRCLE
8
BLACK
10
132.7
20
-78
40
0.2
0
CIRCLE
8
BLACK
10
124.7
20
-88.55
40
0.2
0
CIRCLE
8
BLACK
10
138.25
20
-71.19
40
0.2
0
CIRCLE
8
BLACK
10
128.8
20
-72.475
40
0.2
0
CIRCLE
8
BLACK
10
122.375
20
-84.9
40
0.2
0
CIRCLE
8
BLACK
10
120.2
20
-82.8
40
0.2
0
CIRCLE
8
BLACK
10
116.025
20
-84.9
40
0.2
0
CIRCLE
8
BLACK
10
118.987
20
-82.52
40
0.2
0
CIRCLE
8
BLACK
10
118.116
20
-87.1963
40
0.2
0
CIRCLE
8
BLACK
10
127.203
20
-80.8485
40
0.2
0
CIRCLE
8
BLACK
10
129.725
20
-79.6
40
0.2
0
CIRCLE
8
BLACK
10
129.725
20
-79.6
40
0.2
0
CIRCLE
8
BLACK
10
127.2
20
-79.85
40
0.2
0
CIRCLE
8
BLACK
10
129.725
20
-78.7
40
0.2
  0
ENDSEC
  0
EOF
