  0
SECTION
  2
HEADER
  9
$ANGBASE
  50
0.0
  9
$ANGDIR
  70
  1
  9
$MEASUREMENT
  70
0
  0
ENDSEC
  0
SECTION
  2
TABLES
  0
TABLE
  2
LTYPE
  70
4
  0
LTYPE
  5
40F
  2
CONTINUOUS
  70
0
  3
Solid line
  72
65
  73
0
  40
0.0
  0
LTYPE
  5
410
  2
DASHDOT
 70
0
  3
Dash Dot ____ _ ____ _
 72
65
 73
4
 40
2.0
 49
1.25
 49
-0.25
 49
0.25
 49
-0.25
  0
LTYPE
  5
411
  2
DASHED
 70
0
  3
Dashed __ __ __ __ __
 72
65
 73
2
 40
0.75
 49
0.5
 49
-0.25
  0
LTYPE
  5
43B
  2
DOTTED
 70
0
  3
Dotted .  .  .  .
 72
65
 73
2
 40
0.2
 49
0.0
 49
-0.2
  0
ENDTAB
  0
TABLE
  2
STYLE
  70
4
  0
STYLE
  2
KICAD
  70
0
  40
0
  41
1
  42
1
  50
0
  71
0
  3
isocp.shx
  0
STYLE
  2
KICADB
  70
0
  40
0
  41
1
  42
1
  50
0
  71
0
  3
isocp.shx
  0
STYLE
  2
KICADI
  70
0
  40
0
  41
1
  42
1
  50
15
  71
0
  3
isocp.shx
  0
STYLE
  2
KICADBI
  70
0
  40
0
  41
1
  42
1
  50
15
  71
0
  3
isocp.shx
  0
ENDTAB
  0
TABLE
  2
LAYER
  70
30
  0
LAYER
  2
BLACK
  70
0
  62
7
  6
CONTINUOUS
  0
LAYER
  2
GRAY1
  70
0
  62
251
  6
CONTINUOUS
  0
LAYER
  2
GRAY2
  70
0
  62
8
  6
CONTINUOUS
  0
LAYER
  2
GRAY3
  70
0
  62
9
  6
CONTINUOUS
  0
LAYER
  2
WHITE
  70
0
  62
7
  6
CONTINUOUS
  0
LAYER
  2
LYELLOW
  70
0
  62
51
  6
CONTINUOUS
  0
LAYER
  2
BLUE1
  70
0
  62
178
  6
CONTINUOUS
  0
LAYER
  2
GREEN1
  70
0
  62
98
  6
CONTINUOUS
  0
LAYER
  2
CYAN1
  70
0
  62
138
  6
CONTINUOUS
  0
LAYER
  2
RED1
  70
0
  62
18
  6
CONTINUOUS
  0
LAYER
  2
MAGENTA1
  70
0
  62
228
  6
CONTINUOUS
  0
LAYER
  2
BROWN1
  70
0
  62
58
  6
CONTINUOUS
  0
LAYER
  2
BLUE2
  70
0
  62
5
  6
CONTINUOUS
  0
LAYER
  2
GREEN2
  70
0
  62
3
  6
CONTINUOUS
  0
LAYER
  2
CYAN2
  70
0
  62
4
  6
CONTINUOUS
  0
LAYER
  2
RED2
  70
0
  62
1
  6
CONTINUOUS
  0
LAYER
  2
MAGENTA2
  70
0
  62
6
  6
CONTINUOUS
  0
LAYER
  2
BROWN2
  70
0
  62
54
  6
CONTINUOUS
  0
LAYER
  2
BLUE3
  70
0
  62
171
  6
CONTINUOUS
  0
LAYER
  2
GREEN3
  70
0
  62
91
  6
CONTINUOUS
  0
LAYER
  2
CYAN3
  70
0
  62
131
  6
CONTINUOUS
  0
LAYER
  2
RED3
  70
0
  62
11
  6
CONTINUOUS
  0
LAYER
  2
MAGENTA3
  70
0
  62
221
  6
CONTINUOUS
  0
LAYER
  2
YELLOW3
  70
0
  62
2
  6
CONTINUOUS
  0
LAYER
  2
BLUE4
  70
0
  62
5
  6
CONTINUOUS
  0
LAYER
  2
GREEN4
  70
0
  62
3
  6
CONTINUOUS
  0
LAYER
  2
CYAN4
  70
0
  62
4
  6
CONTINUOUS
  0
LAYER
  2
RED4
  70
0
  62
1
  6
CONTINUOUS
  0
LAYER
  2
MAGENTA4
  70
0
  62
6
  6
CONTINUOUS
  0
LAYER
  2
YELLOW4
  70
0
  62
2
  6
CONTINUOUS
  0
ENDTAB
  0
ENDSEC
  0
SECTION
  2
ENTITIES
0
LINE
8
BLACK
6
CONTINUOUS
10
167.744
20
-94.547
11
167.744
21
-94.547
0
LINE
8
BLACK
6
CONTINUOUS
10
167.744
20
-94.547
11
167.744
21
-94.547
0
LINE
8
BLACK
6
CONTINUOUS
10
167.744
20
-94.547
11
168.208
21
-94.7393
0
LINE
8
BLACK
6
CONTINUOUS
10
168.208
20
-94.7393
11
168.624
21
-95.0172
0
LINE
8
BLACK
6
CONTINUOUS
10
168.624
20
-95.0172
11
168.626
21
-95.0185
0
LINE
8
BLACK
6
CONTINUOUS
10
168.626
20
-95.0185
11
168.981
21
-95.3738
0
LINE
8
BLACK
6
CONTINUOUS
10
168.981
20
-95.3738
11
168.981
21
-95.3738
0
LINE
8
BLACK
6
CONTINUOUS
10
168.981
20
-95.3738
11
169.261
21
-95.7916
0
LINE
8
BLACK
6
CONTINUOUS
10
169.261
20
-95.7916
11
169.453
21
-96.2559
0
LINE
8
BLACK
6
CONTINUOUS
10
169.453
20
-96.2559
11
169.551
21
-96.7487
0
LINE
8
BLACK
6
CONTINUOUS
10
169.551
20
-96.7487
11
169.551
21
-97.2513
0
LINE
8
BLACK
6
CONTINUOUS
10
169.551
20
-97.2513
11
169.453
21
-97.7441
0
LINE
8
BLACK
6
CONTINUOUS
10
169.453
20
-97.7441
11
169.261
21
-98.2084
0
LINE
8
BLACK
6
CONTINUOUS
10
169.261
20
-98.2084
11
168.983
21
-98.6243
0
LINE
8
BLACK
6
CONTINUOUS
10
168.983
20
-98.6243
11
168.981
21
-98.6262
0
LINE
8
BLACK
6
CONTINUOUS
10
168.981
20
-98.6262
11
168.626
21
-98.9815
0
LINE
8
BLACK
6
CONTINUOUS
10
168.626
20
-98.9815
11
168.626
21
-98.9815
0
LINE
8
BLACK
6
CONTINUOUS
10
168.626
20
-98.9815
11
168.208
21
-99.2607
0
LINE
8
BLACK
6
CONTINUOUS
10
168.208
20
-99.2607
11
167.744
21
-99.453
0
LINE
8
BLACK
6
CONTINUOUS
10
167.744
20
-99.453
11
167.744
21
-99.453
0
LINE
8
BLACK
6
CONTINUOUS
10
167.744
20
-99.453
11
167.744
21
-99.453
0
LINE
8
BLACK
6
CONTINUOUS
10
167.744
20
-99.453
11
167.251
21
-99.551
0
LINE
8
BLACK
6
CONTINUOUS
10
167.251
20
-99.551
11
166.749
21
-99.551
0
LINE
8
BLACK
6
CONTINUOUS
10
166.749
20
-99.551
11
166.256
21
-99.453
0
LINE
8
BLACK
6
CONTINUOUS
10
166.256
20
-99.453
11
166.256
21
-99.453
0
LINE
8
BLACK
6
CONTINUOUS
10
166.256
20
-99.453
11
166.256
21
-99.453
0
LINE
8
BLACK
6
CONTINUOUS
10
166.256
20
-99.453
11
165.792
21
-99.2607
0
LINE
8
BLACK
6
CONTINUOUS
10
165.792
20
-99.2607
11
165.374
21
-98.9815
0
LINE
8
BLACK
6
CONTINUOUS
10
165.374
20
-98.9815
11
165.374
21
-98.9815
0
LINE
8
BLACK
6
CONTINUOUS
10
165.374
20
-98.9815
11
165.019
21
-98.6262
0
LINE
8
BLACK
6
CONTINUOUS
10
165.019
20
-98.6262
11
165.017
21
-98.6243
0
LINE
8
BLACK
6
CONTINUOUS
10
165.017
20
-98.6243
11
164.739
21
-98.2084
0
LINE
8
BLACK
6
CONTINUOUS
10
164.739
20
-98.2084
11
164.547
21
-97.7441
0
LINE
8
BLACK
6
CONTINUOUS
10
164.547
20
-97.7441
11
164.449
21
-97.2513
0
LINE
8
BLACK
6
CONTINUOUS
10
164.449
20
-97.2513
11
164.449
21
-96.7487
0
LINE
8
BLACK
6
CONTINUOUS
10
164.449
20
-96.7487
11
164.547
21
-96.2559
0
LINE
8
BLACK
6
CONTINUOUS
10
164.547
20
-96.2559
11
164.739
21
-95.7916
0
LINE
8
BLACK
6
CONTINUOUS
10
164.739
20
-95.7916
11
165.019
21
-95.3738
0
LINE
8
BLACK
6
CONTINUOUS
10
165.019
20
-95.3738
11
165.019
21
-95.3738
0
LINE
8
BLACK
6
CONTINUOUS
10
165.019
20
-95.3738
11
165.374
21
-95.0185
0
LINE
8
BLACK
6
CONTINUOUS
10
165.374
20
-95.0185
11
165.376
21
-95.0172
0
LINE
8
BLACK
6
CONTINUOUS
10
165.376
20
-95.0172
11
165.792
21
-94.7393
0
LINE
8
BLACK
6
CONTINUOUS
10
165.792
20
-94.7393
11
166.256
21
-94.547
0
LINE
8
BLACK
6
CONTINUOUS
10
166.256
20
-94.547
11
166.256
21
-94.547
0
LINE
8
BLACK
6
CONTINUOUS
10
166.256
20
-94.547
11
166.256
21
-94.547
0
LINE
8
BLACK
6
CONTINUOUS
10
166.256
20
-94.547
11
166.749
21
-94.449
0
LINE
8
BLACK
6
CONTINUOUS
10
166.749
20
-94.449
11
167.251
21
-94.449
0
LINE
8
BLACK
6
CONTINUOUS
10
167.251
20
-94.449
11
167.744
21
-94.547
0
LINE
8
BLACK
6
CONTINUOUS
10
103.744
20
-94.547
11
103.744
21
-94.547
0
LINE
8
BLACK
6
CONTINUOUS
10
103.744
20
-94.547
11
103.744
21
-94.547
0
LINE
8
BLACK
6
CONTINUOUS
10
103.744
20
-94.547
11
104.208
21
-94.7393
0
LINE
8
BLACK
6
CONTINUOUS
10
104.208
20
-94.7393
11
104.624
21
-95.0172
0
LINE
8
BLACK
6
CONTINUOUS
10
104.624
20
-95.0172
11
104.626
21
-95.0185
0
LINE
8
BLACK
6
CONTINUOUS
10
104.626
20
-95.0185
11
104.981
21
-95.3738
0
LINE
8
BLACK
6
CONTINUOUS
10
104.981
20
-95.3738
11
104.981
21
-95.3738
0
LINE
8
BLACK
6
CONTINUOUS
10
104.981
20
-95.3738
11
105.261
21
-95.7916
0
LINE
8
BLACK
6
CONTINUOUS
10
105.261
20
-95.7916
11
105.453
21
-96.2559
0
LINE
8
BLACK
6
CONTINUOUS
10
105.453
20
-96.2559
11
105.551
21
-96.7487
0
LINE
8
BLACK
6
CONTINUOUS
10
105.551
20
-96.7487
11
105.551
21
-97.2513
0
LINE
8
BLACK
6
CONTINUOUS
10
105.551
20
-97.2513
11
105.453
21
-97.7441
0
LINE
8
BLACK
6
CONTINUOUS
10
105.453
20
-97.7441
11
105.261
21
-98.2084
0
LINE
8
BLACK
6
CONTINUOUS
10
105.261
20
-98.2084
11
104.983
21
-98.6243
0
LINE
8
BLACK
6
CONTINUOUS
10
104.983
20
-98.6243
11
104.981
21
-98.6262
0
LINE
8
BLACK
6
CONTINUOUS
10
104.981
20
-98.6262
11
104.626
21
-98.9815
0
LINE
8
BLACK
6
CONTINUOUS
10
104.626
20
-98.9815
11
104.626
21
-98.9815
0
LINE
8
BLACK
6
CONTINUOUS
10
104.626
20
-98.9815
11
104.208
21
-99.2607
0
LINE
8
BLACK
6
CONTINUOUS
10
104.208
20
-99.2607
11
103.744
21
-99.453
0
LINE
8
BLACK
6
CONTINUOUS
10
103.744
20
-99.453
11
103.744
21
-99.453
0
LINE
8
BLACK
6
CONTINUOUS
10
103.744
20
-99.453
11
103.744
21
-99.453
0
LINE
8
BLACK
6
CONTINUOUS
10
103.744
20
-99.453
11
103.251
21
-99.551
0
LINE
8
BLACK
6
CONTINUOUS
10
103.251
20
-99.551
11
102.749
21
-99.551
0
LINE
8
BLACK
6
CONTINUOUS
10
102.749
20
-99.551
11
102.256
21
-99.453
0
LINE
8
BLACK
6
CONTINUOUS
10
102.256
20
-99.453
11
102.256
21
-99.453
0
LINE
8
BLACK
6
CONTINUOUS
10
102.256
20
-99.453
11
102.256
21
-99.453
0
LINE
8
BLACK
6
CONTINUOUS
10
102.256
20
-99.453
11
101.792
21
-99.2607
0
LINE
8
BLACK
6
CONTINUOUS
10
101.792
20
-99.2607
11
101.374
21
-98.9815
0
LINE
8
BLACK
6
CONTINUOUS
10
101.374
20
-98.9815
11
101.374
21
-98.9815
0
LINE
8
BLACK
6
CONTINUOUS
10
101.374
20
-98.9815
11
101.019
21
-98.6262
0
LINE
8
BLACK
6
CONTINUOUS
10
101.019
20
-98.6262
11
101.017
21
-98.6243
0
LINE
8
BLACK
6
CONTINUOUS
10
101.017
20
-98.6243
11
100.739
21
-98.2084
0
LINE
8
BLACK
6
CONTINUOUS
10
100.739
20
-98.2084
11
100.547
21
-97.7441
0
LINE
8
BLACK
6
CONTINUOUS
10
100.547
20
-97.7441
11
100.449
21
-97.2513
0
LINE
8
BLACK
6
CONTINUOUS
10
100.449
20
-97.2513
11
100.449
21
-96.7487
0
LINE
8
BLACK
6
CONTINUOUS
10
100.449
20
-96.7487
11
100.547
21
-96.2559
0
LINE
8
BLACK
6
CONTINUOUS
10
100.547
20
-96.2559
11
100.739
21
-95.7916
0
LINE
8
BLACK
6
CONTINUOUS
10
100.739
20
-95.7916
11
101.019
21
-95.3738
0
LINE
8
BLACK
6
CONTINUOUS
10
101.019
20
-95.3738
11
101.019
21
-95.3738
0
LINE
8
BLACK
6
CONTINUOUS
10
101.019
20
-95.3738
11
101.374
21
-95.0185
0
LINE
8
BLACK
6
CONTINUOUS
10
101.374
20
-95.0185
11
101.376
21
-95.0172
0
LINE
8
BLACK
6
CONTINUOUS
10
101.376
20
-95.0172
11
101.792
21
-94.7393
0
LINE
8
BLACK
6
CONTINUOUS
10
101.792
20
-94.7393
11
102.256
21
-94.547
0
LINE
8
BLACK
6
CONTINUOUS
10
102.256
20
-94.547
11
102.256
21
-94.547
0
LINE
8
BLACK
6
CONTINUOUS
10
102.256
20
-94.547
11
102.256
21
-94.547
0
LINE
8
BLACK
6
CONTINUOUS
10
102.256
20
-94.547
11
102.749
21
-94.449
0
LINE
8
BLACK
6
CONTINUOUS
10
102.749
20
-94.449
11
103.251
21
-94.449
0
LINE
8
BLACK
6
CONTINUOUS
10
103.251
20
-94.449
11
103.744
21
-94.547
0
LINE
8
BLACK
6
CONTINUOUS
10
106.577
20
-91.9255
11
106.75
21
-91.9972
0
LINE
8
BLACK
6
CONTINUOUS
10
106.75
20
-91.9972
11
106.906
21
-92.1013
0
LINE
8
BLACK
6
CONTINUOUS
10
106.906
20
-92.1013
11
107.039
21
-92.2338
0
LINE
8
BLACK
6
CONTINUOUS
10
107.039
20
-92.2338
11
107.143
21
-92.3895
0
LINE
8
BLACK
6
CONTINUOUS
10
107.143
20
-92.3895
11
107.214
21
-92.5626
0
LINE
8
BLACK
6
CONTINUOUS
10
107.214
20
-92.5626
11
107.251
21
-92.7463
0
LINE
8
BLACK
6
CONTINUOUS
10
107.251
20
-92.7463
11
107.251
21
-92.9337
0
LINE
8
BLACK
6
CONTINUOUS
10
107.251
20
-92.9337
11
107.214
21
-93.1174
0
LINE
8
BLACK
6
CONTINUOUS
10
107.214
20
-93.1174
11
107.143
21
-93.2905
0
LINE
8
BLACK
6
CONTINUOUS
10
107.143
20
-93.2905
11
107.039
21
-93.4462
0
LINE
8
BLACK
6
CONTINUOUS
10
107.039
20
-93.4462
11
106.906
21
-93.5787
0
LINE
8
BLACK
6
CONTINUOUS
10
106.906
20
-93.5787
11
106.75
21
-93.6828
0
LINE
8
BLACK
6
CONTINUOUS
10
106.75
20
-93.6828
11
106.577
21
-93.7545
0
LINE
8
BLACK
6
CONTINUOUS
10
106.577
20
-93.7545
11
106.394
21
-93.791
0
LINE
8
BLACK
6
CONTINUOUS
10
106.394
20
-93.791
11
106.206
21
-93.791
0
LINE
8
BLACK
6
CONTINUOUS
10
106.206
20
-93.791
11
106.023
21
-93.7545
0
LINE
8
BLACK
6
CONTINUOUS
10
106.023
20
-93.7545
11
105.85
21
-93.6828
0
LINE
8
BLACK
6
CONTINUOUS
10
105.85
20
-93.6828
11
105.694
21
-93.5787
0
LINE
8
BLACK
6
CONTINUOUS
10
105.694
20
-93.5787
11
105.561
21
-93.4462
0
LINE
8
BLACK
6
CONTINUOUS
10
105.561
20
-93.4462
11
105.457
21
-93.2905
0
LINE
8
BLACK
6
CONTINUOUS
10
105.457
20
-93.2905
11
105.386
21
-93.1174
0
LINE
8
BLACK
6
CONTINUOUS
10
105.386
20
-93.1174
11
105.349
21
-92.9337
0
LINE
8
BLACK
6
CONTINUOUS
10
105.349
20
-92.9337
11
105.349
21
-92.7463
0
LINE
8
BLACK
6
CONTINUOUS
10
105.349
20
-92.7463
11
105.386
21
-92.5626
0
LINE
8
BLACK
6
CONTINUOUS
10
105.386
20
-92.5626
11
105.457
21
-92.3895
0
LINE
8
BLACK
6
CONTINUOUS
10
105.457
20
-92.3895
11
105.561
21
-92.2338
0
LINE
8
BLACK
6
CONTINUOUS
10
105.561
20
-92.2338
11
105.694
21
-92.1013
0
LINE
8
BLACK
6
CONTINUOUS
10
105.694
20
-92.1013
11
105.85
21
-91.9972
0
LINE
8
BLACK
6
CONTINUOUS
10
105.85
20
-91.9972
11
106.023
21
-91.9255
0
LINE
8
BLACK
6
CONTINUOUS
10
106.023
20
-91.9255
11
106.206
21
-91.889
0
LINE
8
BLACK
6
CONTINUOUS
10
106.206
20
-91.889
11
106.394
21
-91.889
0
LINE
8
BLACK
6
CONTINUOUS
10
106.394
20
-91.889
11
106.577
21
-91.9255
0
LINE
8
BLACK
6
CONTINUOUS
10
166.01
20
-91.2455
11
166.077
21
-91.252
0
LINE
8
BLACK
6
CONTINUOUS
10
166.077
20
-91.252
11
166.19
21
-91.2864
0
LINE
8
BLACK
6
CONTINUOUS
10
166.19
20
-91.2864
11
166.246
21
-91.3036
0
LINE
8
BLACK
6
CONTINUOUS
10
166.246
20
-91.3036
11
166.385
21
-91.3777
0
LINE
8
BLACK
6
CONTINUOUS
10
166.385
20
-91.3777
11
166.403
21
-91.3872
0
LINE
8
BLACK
6
CONTINUOUS
10
166.403
20
-91.3872
11
166.439
21
-91.4166
0
LINE
8
BLACK
6
CONTINUOUS
10
166.439
20
-91.4166
11
166.54
21
-91.4998
0
LINE
8
BLACK
6
CONTINUOUS
10
166.54
20
-91.4998
11
166.623
21
-91.6013
0
LINE
8
BLACK
6
CONTINUOUS
10
166.623
20
-91.6013
11
166.653
21
-91.637
0
LINE
8
BLACK
6
CONTINUOUS
10
166.653
20
-91.637
11
166.653
21
-91.637
0
LINE
8
BLACK
6
CONTINUOUS
10
166.653
20
-91.637
11
166.736
21
-91.7935
0
LINE
8
BLACK
6
CONTINUOUS
10
166.736
20
-91.7935
11
166.736
21
-91.7935
0
LINE
8
BLACK
6
CONTINUOUS
10
166.736
20
-91.7935
11
166.788
21
-91.9634
0
LINE
8
BLACK
6
CONTINUOUS
10
166.788
20
-91.9634
11
166.805
21
-92.14
0
LINE
8
BLACK
6
CONTINUOUS
10
166.805
20
-92.14
11
166.788
21
-92.3166
0
LINE
8
BLACK
6
CONTINUOUS
10
166.788
20
-92.3166
11
166.766
21
-92.3895
0
LINE
8
BLACK
6
CONTINUOUS
10
166.766
20
-92.3895
11
166.736
21
-92.4865
0
LINE
8
BLACK
6
CONTINUOUS
10
166.736
20
-92.4865
11
166.696
21
-92.5626
0
LINE
8
BLACK
6
CONTINUOUS
10
166.696
20
-92.5626
11
166.653
21
-92.643
0
LINE
8
BLACK
6
CONTINUOUS
10
166.653
20
-92.643
11
166.623
21
-92.6787
0
LINE
8
BLACK
6
CONTINUOUS
10
166.623
20
-92.6787
11
166.54
21
-92.7802
0
LINE
8
BLACK
6
CONTINUOUS
10
166.54
20
-92.7802
11
166.439
21
-92.8634
0
LINE
8
BLACK
6
CONTINUOUS
10
166.439
20
-92.8634
11
166.403
21
-92.8928
0
LINE
8
BLACK
6
CONTINUOUS
10
166.403
20
-92.8928
11
166.403
21
-92.8928
0
LINE
8
BLACK
6
CONTINUOUS
10
166.403
20
-92.8928
11
166.246
21
-92.9764
0
LINE
8
BLACK
6
CONTINUOUS
10
166.246
20
-92.9764
11
166.19
21
-92.9936
0
LINE
8
BLACK
6
CONTINUOUS
10
166.19
20
-92.9936
11
166.077
21
-93.028
0
LINE
8
BLACK
6
CONTINUOUS
10
166.077
20
-93.028
11
166.01
21
-93.0345
0
LINE
8
BLACK
6
CONTINUOUS
10
166.01
20
-93.0345
11
165.944
21
-93.041
0
LINE
8
BLACK
6
CONTINUOUS
10
165.944
20
-93.041
11
165.856
21
-93.041
0
LINE
8
BLACK
6
CONTINUOUS
10
165.856
20
-93.041
11
165.79
21
-93.0345
0
LINE
8
BLACK
6
CONTINUOUS
10
165.79
20
-93.0345
11
165.723
21
-93.028
0
LINE
8
BLACK
6
CONTINUOUS
10
165.723
20
-93.028
11
165.61
21
-92.9936
0
LINE
8
BLACK
6
CONTINUOUS
10
165.61
20
-92.9936
11
165.554
21
-92.9764
0
LINE
8
BLACK
6
CONTINUOUS
10
165.554
20
-92.9764
11
165.397
21
-92.8928
0
LINE
8
BLACK
6
CONTINUOUS
10
165.397
20
-92.8928
11
165.397
21
-92.8928
0
LINE
8
BLACK
6
CONTINUOUS
10
165.397
20
-92.8928
11
165.361
21
-92.8634
0
LINE
8
BLACK
6
CONTINUOUS
10
165.361
20
-92.8634
11
165.26
21
-92.7802
0
LINE
8
BLACK
6
CONTINUOUS
10
165.26
20
-92.7802
11
165.177
21
-92.6787
0
LINE
8
BLACK
6
CONTINUOUS
10
165.177
20
-92.6787
11
165.147
21
-92.643
0
LINE
8
BLACK
6
CONTINUOUS
10
165.147
20
-92.643
11
165.104
21
-92.5626
0
LINE
8
BLACK
6
CONTINUOUS
10
165.104
20
-92.5626
11
165.064
21
-92.4865
0
LINE
8
BLACK
6
CONTINUOUS
10
165.064
20
-92.4865
11
165.034
21
-92.3895
0
LINE
8
BLACK
6
CONTINUOUS
10
165.034
20
-92.3895
11
165.012
21
-92.3166
0
LINE
8
BLACK
6
CONTINUOUS
10
165.012
20
-92.3166
11
164.995
21
-92.14
0
LINE
8
BLACK
6
CONTINUOUS
10
164.995
20
-92.14
11
165.012
21
-91.9634
0
LINE
8
BLACK
6
CONTINUOUS
10
165.012
20
-91.9634
11
165.064
21
-91.7935
0
LINE
8
BLACK
6
CONTINUOUS
10
165.064
20
-91.7935
11
165.064
21
-91.7935
0
LINE
8
BLACK
6
CONTINUOUS
10
165.064
20
-91.7935
11
165.147
21
-91.637
0
LINE
8
BLACK
6
CONTINUOUS
10
165.147
20
-91.637
11
165.147
21
-91.637
0
LINE
8
BLACK
6
CONTINUOUS
10
165.147
20
-91.637
11
165.177
21
-91.6013
0
LINE
8
BLACK
6
CONTINUOUS
10
165.177
20
-91.6013
11
165.26
21
-91.4998
0
LINE
8
BLACK
6
CONTINUOUS
10
165.26
20
-91.4998
11
165.361
21
-91.4166
0
LINE
8
BLACK
6
CONTINUOUS
10
165.361
20
-91.4166
11
165.397
21
-91.3872
0
LINE
8
BLACK
6
CONTINUOUS
10
165.397
20
-91.3872
11
165.415
21
-91.3777
0
LINE
8
BLACK
6
CONTINUOUS
10
165.415
20
-91.3777
11
165.554
21
-91.3036
0
LINE
8
BLACK
6
CONTINUOUS
10
165.554
20
-91.3036
11
165.61
21
-91.2864
0
LINE
8
BLACK
6
CONTINUOUS
10
165.61
20
-91.2864
11
165.723
21
-91.252
0
LINE
8
BLACK
6
CONTINUOUS
10
165.723
20
-91.252
11
165.79
21
-91.2455
0
LINE
8
BLACK
6
CONTINUOUS
10
165.79
20
-91.2455
11
165.856
21
-91.239
0
LINE
8
BLACK
6
CONTINUOUS
10
165.856
20
-91.239
11
165.944
21
-91.239
0
LINE
8
BLACK
6
CONTINUOUS
10
165.944
20
-91.239
11
166.01
21
-91.2455
0
LINE
8
BLACK
6
CONTINUOUS
10
107.251
20
-91.251
11
105.349
21
-91.251
0
LINE
8
BLACK
6
CONTINUOUS
10
105.349
20
-91.251
11
105.349
21
-89.349
0
LINE
8
BLACK
6
CONTINUOUS
10
105.349
20
-89.349
11
107.251
21
-89.349
0
LINE
8
BLACK
6
CONTINUOUS
10
107.251
20
-89.349
11
107.251
21
-91.251
0
LINE
8
BLACK
6
CONTINUOUS
10
166.801
20
-90.501
11
164.999
21
-90.501
0
LINE
8
BLACK
6
CONTINUOUS
10
164.999
20
-90.501
11
164.999
21
-88.699
0
LINE
8
BLACK
6
CONTINUOUS
10
164.999
20
-88.699
11
166.801
21
-88.699
0
LINE
8
BLACK
6
CONTINUOUS
10
166.801
20
-88.699
11
166.801
21
-90.501
0
LINE
8
BLACK
6
CONTINUOUS
10
106.086
20
-85.1828
11
106.086
21
-85.1828
0
LINE
8
BLACK
6
CONTINUOUS
10
106.086
20
-85.1828
11
106.086
21
-85.1828
0
LINE
8
BLACK
6
CONTINUOUS
10
106.086
20
-85.1828
11
106.266
21
-85.2371
0
LINE
8
BLACK
6
CONTINUOUS
10
106.266
20
-85.2371
11
106.266
21
-85.2371
0
LINE
8
BLACK
6
CONTINUOUS
10
106.266
20
-85.2371
11
106.431
21
-85.3254
0
LINE
8
BLACK
6
CONTINUOUS
10
106.431
20
-85.3254
11
106.576
21
-85.4443
0
LINE
8
BLACK
6
CONTINUOUS
10
106.576
20
-85.4443
11
106.695
21
-85.5891
0
LINE
8
BLACK
6
CONTINUOUS
10
106.695
20
-85.5891
11
106.783
21
-85.7543
0
LINE
8
BLACK
6
CONTINUOUS
10
106.783
20
-85.7543
11
106.837
21
-85.9336
0
LINE
8
BLACK
6
CONTINUOUS
10
106.837
20
-85.9336
11
106.856
21
-86.12
0
LINE
8
BLACK
6
CONTINUOUS
10
106.856
20
-86.12
11
106.837
21
-86.3064
0
LINE
8
BLACK
6
CONTINUOUS
10
106.837
20
-86.3064
11
106.783
21
-86.4857
0
LINE
8
BLACK
6
CONTINUOUS
10
106.783
20
-86.4857
11
106.695
21
-86.6509
0
LINE
8
BLACK
6
CONTINUOUS
10
106.695
20
-86.6509
11
106.576
21
-86.7957
0
LINE
8
BLACK
6
CONTINUOUS
10
106.576
20
-86.7957
11
106.431
21
-86.9146
0
LINE
8
BLACK
6
CONTINUOUS
10
106.431
20
-86.9146
11
106.431
21
-86.9146
0
LINE
8
BLACK
6
CONTINUOUS
10
106.431
20
-86.9146
11
106.266
21
-87.0029
0
LINE
8
BLACK
6
CONTINUOUS
10
106.266
20
-87.0029
11
106.086
21
-87.0572
0
LINE
8
BLACK
6
CONTINUOUS
10
106.086
20
-87.0572
11
106.086
21
-87.0572
0
LINE
8
BLACK
6
CONTINUOUS
10
106.086
20
-87.0572
11
106.086
21
-87.0572
0
LINE
8
BLACK
6
CONTINUOUS
10
106.086
20
-87.0572
11
105.947
21
-87.071
0
LINE
8
BLACK
6
CONTINUOUS
10
105.947
20
-87.071
11
104.053
21
-87.071
0
LINE
8
BLACK
6
CONTINUOUS
10
104.053
20
-87.071
11
103.914
21
-87.0572
0
LINE
8
BLACK
6
CONTINUOUS
10
103.914
20
-87.0572
11
103.914
21
-87.0572
0
LINE
8
BLACK
6
CONTINUOUS
10
103.914
20
-87.0572
11
103.914
21
-87.0572
0
LINE
8
BLACK
6
CONTINUOUS
10
103.914
20
-87.0572
11
103.734
21
-87.0029
0
LINE
8
BLACK
6
CONTINUOUS
10
103.734
20
-87.0029
11
103.569
21
-86.9146
0
LINE
8
BLACK
6
CONTINUOUS
10
103.569
20
-86.9146
11
103.569
21
-86.9146
0
LINE
8
BLACK
6
CONTINUOUS
10
103.569
20
-86.9146
11
103.424
21
-86.7957
0
LINE
8
BLACK
6
CONTINUOUS
10
103.424
20
-86.7957
11
103.305
21
-86.6509
0
LINE
8
BLACK
6
CONTINUOUS
10
103.305
20
-86.6509
11
103.217
21
-86.4857
0
LINE
8
BLACK
6
CONTINUOUS
10
103.217
20
-86.4857
11
103.163
21
-86.3064
0
LINE
8
BLACK
6
CONTINUOUS
10
103.163
20
-86.3064
11
103.144
21
-86.12
0
LINE
8
BLACK
6
CONTINUOUS
10
103.144
20
-86.12
11
103.163
21
-85.9336
0
LINE
8
BLACK
6
CONTINUOUS
10
103.163
20
-85.9336
11
103.217
21
-85.7543
0
LINE
8
BLACK
6
CONTINUOUS
10
103.217
20
-85.7543
11
103.305
21
-85.5891
0
LINE
8
BLACK
6
CONTINUOUS
10
103.305
20
-85.5891
11
103.424
21
-85.4443
0
LINE
8
BLACK
6
CONTINUOUS
10
103.424
20
-85.4443
11
103.569
21
-85.3254
0
LINE
8
BLACK
6
CONTINUOUS
10
103.569
20
-85.3254
11
103.734
21
-85.2371
0
LINE
8
BLACK
6
CONTINUOUS
10
103.734
20
-85.2371
11
103.734
21
-85.2371
0
LINE
8
BLACK
6
CONTINUOUS
10
103.734
20
-85.2371
11
103.914
21
-85.1828
0
LINE
8
BLACK
6
CONTINUOUS
10
103.914
20
-85.1828
11
103.914
21
-85.1828
0
LINE
8
BLACK
6
CONTINUOUS
10
103.914
20
-85.1828
11
103.914
21
-85.1828
0
LINE
8
BLACK
6
CONTINUOUS
10
103.914
20
-85.1828
11
104.053
21
-85.169
0
LINE
8
BLACK
6
CONTINUOUS
10
104.053
20
-85.169
11
105.947
21
-85.169
0
LINE
8
BLACK
6
CONTINUOUS
10
105.947
20
-85.169
11
106.086
21
-85.1828
0
LINE
8
BLACK
6
CONTINUOUS
10
106.086
20
-80.1028
11
106.086
21
-80.1028
0
LINE
8
BLACK
6
CONTINUOUS
10
106.086
20
-80.1028
11
106.086
21
-80.1028
0
LINE
8
BLACK
6
CONTINUOUS
10
106.086
20
-80.1028
11
106.266
21
-80.1571
0
LINE
8
BLACK
6
CONTINUOUS
10
106.266
20
-80.1571
11
106.266
21
-80.1571
0
LINE
8
BLACK
6
CONTINUOUS
10
106.266
20
-80.1571
11
106.431
21
-80.2454
0
LINE
8
BLACK
6
CONTINUOUS
10
106.431
20
-80.2454
11
106.576
21
-80.3643
0
LINE
8
BLACK
6
CONTINUOUS
10
106.576
20
-80.3643
11
106.695
21
-80.5091
0
LINE
8
BLACK
6
CONTINUOUS
10
106.695
20
-80.5091
11
106.695
21
-80.5091
0
LINE
8
BLACK
6
CONTINUOUS
10
106.695
20
-80.5091
11
106.783
21
-80.6743
0
LINE
8
BLACK
6
CONTINUOUS
10
106.783
20
-80.6743
11
106.837
21
-80.8536
0
LINE
8
BLACK
6
CONTINUOUS
10
106.837
20
-80.8536
11
106.837
21
-80.8536
0
LINE
8
BLACK
6
CONTINUOUS
10
106.837
20
-80.8536
11
106.856
21
-81.04
0
LINE
8
BLACK
6
CONTINUOUS
10
106.856
20
-81.04
11
106.837
21
-81.2264
0
LINE
8
BLACK
6
CONTINUOUS
10
106.837
20
-81.2264
11
106.783
21
-81.4057
0
LINE
8
BLACK
6
CONTINUOUS
10
106.783
20
-81.4057
11
106.695
21
-81.5709
0
LINE
8
BLACK
6
CONTINUOUS
10
106.695
20
-81.5709
11
106.576
21
-81.7157
0
LINE
8
BLACK
6
CONTINUOUS
10
106.576
20
-81.7157
11
106.431
21
-81.8346
0
LINE
8
BLACK
6
CONTINUOUS
10
106.431
20
-81.8346
11
106.431
21
-81.8346
0
LINE
8
BLACK
6
CONTINUOUS
10
106.431
20
-81.8346
11
106.266
21
-81.9229
0
LINE
8
BLACK
6
CONTINUOUS
10
106.266
20
-81.9229
11
106.086
21
-81.9772
0
LINE
8
BLACK
6
CONTINUOUS
10
106.086
20
-81.9772
11
106.086
21
-81.9772
0
LINE
8
BLACK
6
CONTINUOUS
10
106.086
20
-81.9772
11
106.086
21
-81.9772
0
LINE
8
BLACK
6
CONTINUOUS
10
106.086
20
-81.9772
11
105.947
21
-81.991
0
LINE
8
BLACK
6
CONTINUOUS
10
105.947
20
-81.991
11
104.053
21
-81.991
0
LINE
8
BLACK
6
CONTINUOUS
10
104.053
20
-81.991
11
103.914
21
-81.9772
0
LINE
8
BLACK
6
CONTINUOUS
10
103.914
20
-81.9772
11
103.914
21
-81.9772
0
LINE
8
BLACK
6
CONTINUOUS
10
103.914
20
-81.9772
11
103.914
21
-81.9772
0
LINE
8
BLACK
6
CONTINUOUS
10
103.914
20
-81.9772
11
103.734
21
-81.9229
0
LINE
8
BLACK
6
CONTINUOUS
10
103.734
20
-81.9229
11
103.569
21
-81.8346
0
LINE
8
BLACK
6
CONTINUOUS
10
103.569
20
-81.8346
11
103.569
21
-81.8346
0
LINE
8
BLACK
6
CONTINUOUS
10
103.569
20
-81.8346
11
103.424
21
-81.7157
0
LINE
8
BLACK
6
CONTINUOUS
10
103.424
20
-81.7157
11
103.305
21
-81.5709
0
LINE
8
BLACK
6
CONTINUOUS
10
103.305
20
-81.5709
11
103.217
21
-81.4057
0
LINE
8
BLACK
6
CONTINUOUS
10
103.217
20
-81.4057
11
103.163
21
-81.2264
0
LINE
8
BLACK
6
CONTINUOUS
10
103.163
20
-81.2264
11
103.144
21
-81.04
0
LINE
8
BLACK
6
CONTINUOUS
10
103.144
20
-81.04
11
103.163
21
-80.8536
0
LINE
8
BLACK
6
CONTINUOUS
10
103.163
20
-80.8536
11
103.163
21
-80.8536
0
LINE
8
BLACK
6
CONTINUOUS
10
103.163
20
-80.8536
11
103.217
21
-80.6743
0
LINE
8
BLACK
6
CONTINUOUS
10
103.217
20
-80.6743
11
103.305
21
-80.5091
0
LINE
8
BLACK
6
CONTINUOUS
10
103.305
20
-80.5091
11
103.305
21
-80.5091
0
LINE
8
BLACK
6
CONTINUOUS
10
103.305
20
-80.5091
11
103.424
21
-80.3643
0
LINE
8
BLACK
6
CONTINUOUS
10
103.424
20
-80.3643
11
103.569
21
-80.2454
0
LINE
8
BLACK
6
CONTINUOUS
10
103.569
20
-80.2454
11
103.734
21
-80.1571
0
LINE
8
BLACK
6
CONTINUOUS
10
103.734
20
-80.1571
11
103.734
21
-80.1571
0
LINE
8
BLACK
6
CONTINUOUS
10
103.734
20
-80.1571
11
103.914
21
-80.1028
0
LINE
8
BLACK
6
CONTINUOUS
10
103.914
20
-80.1028
11
103.914
21
-80.1028
0
LINE
8
BLACK
6
CONTINUOUS
10
103.914
20
-80.1028
11
103.914
21
-80.1028
0
LINE
8
BLACK
6
CONTINUOUS
10
103.914
20
-80.1028
11
104.053
21
-80.089
0
LINE
8
BLACK
6
CONTINUOUS
10
104.053
20
-80.089
11
105.947
21
-80.089
0
LINE
8
BLACK
6
CONTINUOUS
10
105.947
20
-80.089
11
106.086
21
-80.1028
0
LINE
8
BLACK
6
CONTINUOUS
10
169.301
20
-80.751
11
164.699
21
-80.751
0
LINE
8
BLACK
6
CONTINUOUS
10
164.699
20
-80.751
11
164.699
21
-79.149
0
LINE
8
BLACK
6
CONTINUOUS
10
164.699
20
-79.149
11
169.301
21
-79.149
0
LINE
8
BLACK
6
CONTINUOUS
10
169.301
20
-79.149
11
169.301
21
-80.751
0
LINE
8
BLACK
6
CONTINUOUS
10
106.086
20
-75.0228
11
106.086
21
-75.0228
0
LINE
8
BLACK
6
CONTINUOUS
10
106.086
20
-75.0228
11
106.086
21
-75.0228
0
LINE
8
BLACK
6
CONTINUOUS
10
106.086
20
-75.0228
11
106.266
21
-75.0771
0
LINE
8
BLACK
6
CONTINUOUS
10
106.266
20
-75.0771
11
106.266
21
-75.0771
0
LINE
8
BLACK
6
CONTINUOUS
10
106.266
20
-75.0771
11
106.431
21
-75.1654
0
LINE
8
BLACK
6
CONTINUOUS
10
106.431
20
-75.1654
11
106.576
21
-75.2843
0
LINE
8
BLACK
6
CONTINUOUS
10
106.576
20
-75.2843
11
106.695
21
-75.4291
0
LINE
8
BLACK
6
CONTINUOUS
10
106.695
20
-75.4291
11
106.695
21
-75.4291
0
LINE
8
BLACK
6
CONTINUOUS
10
106.695
20
-75.4291
11
106.783
21
-75.5943
0
LINE
8
BLACK
6
CONTINUOUS
10
106.783
20
-75.5943
11
106.837
21
-75.7736
0
LINE
8
BLACK
6
CONTINUOUS
10
106.837
20
-75.7736
11
106.837
21
-75.7736
0
LINE
8
BLACK
6
CONTINUOUS
10
106.837
20
-75.7736
11
106.856
21
-75.96
0
LINE
8
BLACK
6
CONTINUOUS
10
106.856
20
-75.96
11
106.837
21
-76.1464
0
LINE
8
BLACK
6
CONTINUOUS
10
106.837
20
-76.1464
11
106.783
21
-76.3257
0
LINE
8
BLACK
6
CONTINUOUS
10
106.783
20
-76.3257
11
106.695
21
-76.4909
0
LINE
8
BLACK
6
CONTINUOUS
10
106.695
20
-76.4909
11
106.576
21
-76.6357
0
LINE
8
BLACK
6
CONTINUOUS
10
106.576
20
-76.6357
11
106.431
21
-76.7546
0
LINE
8
BLACK
6
CONTINUOUS
10
106.431
20
-76.7546
11
106.431
21
-76.7546
0
LINE
8
BLACK
6
CONTINUOUS
10
106.431
20
-76.7546
11
106.266
21
-76.8429
0
LINE
8
BLACK
6
CONTINUOUS
10
106.266
20
-76.8429
11
106.086
21
-76.8972
0
LINE
8
BLACK
6
CONTINUOUS
10
106.086
20
-76.8972
11
106.086
21
-76.8972
0
LINE
8
BLACK
6
CONTINUOUS
10
106.086
20
-76.8972
11
106.086
21
-76.8972
0
LINE
8
BLACK
6
CONTINUOUS
10
106.086
20
-76.8972
11
105.947
21
-76.911
0
LINE
8
BLACK
6
CONTINUOUS
10
105.947
20
-76.911
11
104.053
21
-76.911
0
LINE
8
BLACK
6
CONTINUOUS
10
104.053
20
-76.911
11
103.914
21
-76.8972
0
LINE
8
BLACK
6
CONTINUOUS
10
103.914
20
-76.8972
11
103.914
21
-76.8972
0
LINE
8
BLACK
6
CONTINUOUS
10
103.914
20
-76.8972
11
103.914
21
-76.8972
0
LINE
8
BLACK
6
CONTINUOUS
10
103.914
20
-76.8972
11
103.734
21
-76.8429
0
LINE
8
BLACK
6
CONTINUOUS
10
103.734
20
-76.8429
11
103.569
21
-76.7546
0
LINE
8
BLACK
6
CONTINUOUS
10
103.569
20
-76.7546
11
103.569
21
-76.7546
0
LINE
8
BLACK
6
CONTINUOUS
10
103.569
20
-76.7546
11
103.424
21
-76.6357
0
LINE
8
BLACK
6
CONTINUOUS
10
103.424
20
-76.6357
11
103.305
21
-76.4909
0
LINE
8
BLACK
6
CONTINUOUS
10
103.305
20
-76.4909
11
103.217
21
-76.3257
0
LINE
8
BLACK
6
CONTINUOUS
10
103.217
20
-76.3257
11
103.163
21
-76.1464
0
LINE
8
BLACK
6
CONTINUOUS
10
103.163
20
-76.1464
11
103.144
21
-75.96
0
LINE
8
BLACK
6
CONTINUOUS
10
103.144
20
-75.96
11
103.163
21
-75.7736
0
LINE
8
BLACK
6
CONTINUOUS
10
103.163
20
-75.7736
11
103.163
21
-75.7736
0
LINE
8
BLACK
6
CONTINUOUS
10
103.163
20
-75.7736
11
103.217
21
-75.5943
0
LINE
8
BLACK
6
CONTINUOUS
10
103.217
20
-75.5943
11
103.305
21
-75.4291
0
LINE
8
BLACK
6
CONTINUOUS
10
103.305
20
-75.4291
11
103.305
21
-75.4291
0
LINE
8
BLACK
6
CONTINUOUS
10
103.305
20
-75.4291
11
103.424
21
-75.2843
0
LINE
8
BLACK
6
CONTINUOUS
10
103.424
20
-75.2843
11
103.569
21
-75.1654
0
LINE
8
BLACK
6
CONTINUOUS
10
103.569
20
-75.1654
11
103.734
21
-75.0771
0
LINE
8
BLACK
6
CONTINUOUS
10
103.734
20
-75.0771
11
103.734
21
-75.0771
0
LINE
8
BLACK
6
CONTINUOUS
10
103.734
20
-75.0771
11
103.914
21
-75.0228
0
LINE
8
BLACK
6
CONTINUOUS
10
103.914
20
-75.0228
11
103.914
21
-75.0228
0
LINE
8
BLACK
6
CONTINUOUS
10
103.914
20
-75.0228
11
103.914
21
-75.0228
0
LINE
8
BLACK
6
CONTINUOUS
10
103.914
20
-75.0228
11
104.053
21
-75.009
0
LINE
8
BLACK
6
CONTINUOUS
10
104.053
20
-75.009
11
105.947
21
-75.009
0
LINE
8
BLACK
6
CONTINUOUS
10
105.947
20
-75.009
11
106.086
21
-75.0228
0
LINE
8
BLACK
6
CONTINUOUS
10
169.301
20
-75.651
11
164.699
21
-75.651
0
LINE
8
BLACK
6
CONTINUOUS
10
164.699
20
-75.651
11
164.699
21
-74.049
0
LINE
8
BLACK
6
CONTINUOUS
10
164.699
20
-74.049
11
169.301
21
-74.049
0
LINE
8
BLACK
6
CONTINUOUS
10
169.301
20
-74.049
11
169.301
21
-75.651
0
LINE
8
BLACK
6
CONTINUOUS
10
118.263
20
-69.1336
11
118.427
21
-69.2015
0
LINE
8
BLACK
6
CONTINUOUS
10
118.427
20
-69.2015
11
118.574
21
-69.3001
0
LINE
8
BLACK
6
CONTINUOUS
10
118.574
20
-69.3001
11
118.7
21
-69.4256
0
LINE
8
BLACK
6
CONTINUOUS
10
118.7
20
-69.4256
11
118.798
21
-69.5732
0
LINE
8
BLACK
6
CONTINUOUS
10
118.798
20
-69.5732
11
118.866
21
-69.7372
0
LINE
8
BLACK
6
CONTINUOUS
10
118.866
20
-69.7372
11
118.901
21
-69.9113
0
LINE
8
BLACK
6
CONTINUOUS
10
118.901
20
-69.9113
11
118.901
21
-70.0887
0
LINE
8
BLACK
6
CONTINUOUS
10
118.901
20
-70.0887
11
118.866
21
-70.2628
0
LINE
8
BLACK
6
CONTINUOUS
10
118.866
20
-70.2628
11
118.798
21
-70.4268
0
LINE
8
BLACK
6
CONTINUOUS
10
118.798
20
-70.4268
11
118.7
21
-70.5744
0
LINE
8
BLACK
6
CONTINUOUS
10
118.7
20
-70.5744
11
118.574
21
-70.6999
0
LINE
8
BLACK
6
CONTINUOUS
10
118.574
20
-70.6999
11
118.427
21
-70.7985
0
LINE
8
BLACK
6
CONTINUOUS
10
118.427
20
-70.7985
11
118.282
21
-70.8585
0
LINE
8
BLACK
6
CONTINUOUS
10
118.282
20
-70.8585
11
118.26
21
-70.8701
0
LINE
8
BLACK
6
CONTINUOUS
10
118.26
20
-70.8701
11
118.241
21
-70.8856
0
LINE
8
BLACK
6
CONTINUOUS
10
118.241
20
-70.8856
11
118.226
21
-70.9046
0
LINE
8
BLACK
6
CONTINUOUS
10
118.226
20
-70.9046
11
118.214
21
-70.9262
0
LINE
8
BLACK
6
CONTINUOUS
10
118.214
20
-70.9262
11
118.207
21
-70.9496
0
LINE
8
BLACK
6
CONTINUOUS
10
118.207
20
-70.9496
11
118.205
21
-70.974
0
LINE
8
BLACK
6
CONTINUOUS
10
118.205
20
-70.974
11
118.207
21
-70.9984
0
LINE
8
BLACK
6
CONTINUOUS
10
118.207
20
-70.9984
11
118.214
21
-71.0218
0
LINE
8
BLACK
6
CONTINUOUS
10
118.214
20
-71.0218
11
118.226
21
-71.0434
0
LINE
8
BLACK
6
CONTINUOUS
10
118.226
20
-71.0434
11
118.241
21
-71.0624
0
LINE
8
BLACK
6
CONTINUOUS
10
118.241
20
-71.0624
11
118.26
21
-71.0779
0
LINE
8
BLACK
6
CONTINUOUS
10
118.26
20
-71.0779
11
118.282
21
-71.0895
0
LINE
8
BLACK
6
CONTINUOUS
10
118.282
20
-71.0895
11
118.305
21
-71.0966
0
LINE
8
BLACK
6
CONTINUOUS
10
118.305
20
-71.0966
11
118.33
21
-71.099
0
LINE
8
BLACK
6
CONTINUOUS
10
118.33
20
-71.099
11
118.901
21
-71.099
0
LINE
8
BLACK
6
CONTINUOUS
10
118.901
20
-71.099
11
118.901
21
-72.901
0
LINE
8
BLACK
6
CONTINUOUS
10
118.901
20
-72.901
11
117.099
21
-72.901
0
LINE
8
BLACK
6
CONTINUOUS
10
117.099
20
-72.901
11
117.099
21
-71.099
0
LINE
8
BLACK
6
CONTINUOUS
10
117.099
20
-71.099
11
117.67
21
-71.099
0
LINE
8
BLACK
6
CONTINUOUS
10
117.67
20
-71.099
11
117.695
21
-71.0966
0
LINE
8
BLACK
6
CONTINUOUS
10
117.695
20
-71.0966
11
117.718
21
-71.0895
0
LINE
8
BLACK
6
CONTINUOUS
10
117.718
20
-71.0895
11
117.74
21
-71.0779
0
LINE
8
BLACK
6
CONTINUOUS
10
117.74
20
-71.0779
11
117.759
21
-71.0624
0
LINE
8
BLACK
6
CONTINUOUS
10
117.759
20
-71.0624
11
117.774
21
-71.0434
0
LINE
8
BLACK
6
CONTINUOUS
10
117.774
20
-71.0434
11
117.786
21
-71.0218
0
LINE
8
BLACK
6
CONTINUOUS
10
117.786
20
-71.0218
11
117.793
21
-70.9984
0
LINE
8
BLACK
6
CONTINUOUS
10
117.793
20
-70.9984
11
117.795
21
-70.974
0
LINE
8
BLACK
6
CONTINUOUS
10
117.795
20
-70.974
11
117.793
21
-70.9496
0
LINE
8
BLACK
6
CONTINUOUS
10
117.793
20
-70.9496
11
117.786
21
-70.9262
0
LINE
8
BLACK
6
CONTINUOUS
10
117.786
20
-70.9262
11
117.774
21
-70.9046
0
LINE
8
BLACK
6
CONTINUOUS
10
117.774
20
-70.9046
11
117.759
21
-70.8856
0
LINE
8
BLACK
6
CONTINUOUS
10
117.759
20
-70.8856
11
117.74
21
-70.8701
0
LINE
8
BLACK
6
CONTINUOUS
10
117.74
20
-70.8701
11
117.718
21
-70.8585
0
LINE
8
BLACK
6
CONTINUOUS
10
117.718
20
-70.8585
11
117.573
21
-70.7985
0
LINE
8
BLACK
6
CONTINUOUS
10
117.573
20
-70.7985
11
117.426
21
-70.6999
0
LINE
8
BLACK
6
CONTINUOUS
10
117.426
20
-70.6999
11
117.3
21
-70.5744
0
LINE
8
BLACK
6
CONTINUOUS
10
117.3
20
-70.5744
11
117.202
21
-70.4268
0
LINE
8
BLACK
6
CONTINUOUS
10
117.202
20
-70.4268
11
117.134
21
-70.2628
0
LINE
8
BLACK
6
CONTINUOUS
10
117.134
20
-70.2628
11
117.099
21
-70.0887
0
LINE
8
BLACK
6
CONTINUOUS
10
117.099
20
-70.0887
11
117.099
21
-69.9113
0
LINE
8
BLACK
6
CONTINUOUS
10
117.099
20
-69.9113
11
117.134
21
-69.7372
0
LINE
8
BLACK
6
CONTINUOUS
10
117.134
20
-69.7372
11
117.202
21
-69.5732
0
LINE
8
BLACK
6
CONTINUOUS
10
117.202
20
-69.5732
11
117.3
21
-69.4256
0
LINE
8
BLACK
6
CONTINUOUS
10
117.3
20
-69.4256
11
117.426
21
-69.3001
0
LINE
8
BLACK
6
CONTINUOUS
10
117.426
20
-69.3001
11
117.573
21
-69.2015
0
LINE
8
BLACK
6
CONTINUOUS
10
117.573
20
-69.2015
11
117.737
21
-69.1336
0
LINE
8
BLACK
6
CONTINUOUS
10
117.737
20
-69.1336
11
117.911
21
-69.099
0
LINE
8
BLACK
6
CONTINUOUS
10
117.911
20
-69.099
11
118.089
21
-69.099
0
LINE
8
BLACK
6
CONTINUOUS
10
118.089
20
-69.099
11
118.263
21
-69.1336
0
LINE
8
BLACK
6
CONTINUOUS
10
120.763
20
-69.1336
11
120.927
21
-69.2015
0
LINE
8
BLACK
6
CONTINUOUS
10
120.927
20
-69.2015
11
121.074
21
-69.3001
0
LINE
8
BLACK
6
CONTINUOUS
10
121.074
20
-69.3001
11
121.2
21
-69.4256
0
LINE
8
BLACK
6
CONTINUOUS
10
121.2
20
-69.4256
11
121.298
21
-69.5732
0
LINE
8
BLACK
6
CONTINUOUS
10
121.298
20
-69.5732
11
121.366
21
-69.7372
0
LINE
8
BLACK
6
CONTINUOUS
10
121.366
20
-69.7372
11
121.401
21
-69.9113
0
LINE
8
BLACK
6
CONTINUOUS
10
121.401
20
-69.9113
11
121.401
21
-70.0887
0
LINE
8
BLACK
6
CONTINUOUS
10
121.401
20
-70.0887
11
121.366
21
-70.2628
0
LINE
8
BLACK
6
CONTINUOUS
10
121.366
20
-70.2628
11
121.298
21
-70.4268
0
LINE
8
BLACK
6
CONTINUOUS
10
121.298
20
-70.4268
11
121.2
21
-70.5744
0
LINE
8
BLACK
6
CONTINUOUS
10
121.2
20
-70.5744
11
121.074
21
-70.6999
0
LINE
8
BLACK
6
CONTINUOUS
10
121.074
20
-70.6999
11
120.927
21
-70.7985
0
LINE
8
BLACK
6
CONTINUOUS
10
120.927
20
-70.7985
11
120.763
21
-70.8664
0
LINE
8
BLACK
6
CONTINUOUS
10
120.763
20
-70.8664
11
120.707
21
-70.8774
0
LINE
8
BLACK
6
CONTINUOUS
10
120.707
20
-70.8774
11
120.684
21
-70.8845
0
LINE
8
BLACK
6
CONTINUOUS
10
120.684
20
-70.8845
11
120.662
21
-70.8961
0
LINE
8
BLACK
6
CONTINUOUS
10
120.662
20
-70.8961
11
120.643
21
-70.9116
0
LINE
8
BLACK
6
CONTINUOUS
10
120.643
20
-70.9116
11
120.628
21
-70.9306
0
LINE
8
BLACK
6
CONTINUOUS
10
120.628
20
-70.9306
11
120.616
21
-70.9522
0
LINE
8
BLACK
6
CONTINUOUS
10
120.616
20
-70.9522
11
120.609
21
-70.9756
0
LINE
8
BLACK
6
CONTINUOUS
10
120.609
20
-70.9756
11
120.607
21
-71
0
LINE
8
BLACK
6
CONTINUOUS
10
120.607
20
-71
11
120.609
21
-71.0244
0
LINE
8
BLACK
6
CONTINUOUS
10
120.609
20
-71.0244
11
120.616
21
-71.0478
0
LINE
8
BLACK
6
CONTINUOUS
10
120.616
20
-71.0478
11
120.628
21
-71.0694
0
LINE
8
BLACK
6
CONTINUOUS
10
120.628
20
-71.0694
11
120.643
21
-71.0884
0
LINE
8
BLACK
6
CONTINUOUS
10
120.643
20
-71.0884
11
120.662
21
-71.1039
0
LINE
8
BLACK
6
CONTINUOUS
10
120.662
20
-71.1039
11
120.684
21
-71.1155
0
LINE
8
BLACK
6
CONTINUOUS
10
120.684
20
-71.1155
11
120.707
21
-71.1226
0
LINE
8
BLACK
6
CONTINUOUS
10
120.707
20
-71.1226
11
120.763
21
-71.1336
0
LINE
8
BLACK
6
CONTINUOUS
10
120.763
20
-71.1336
11
120.927
21
-71.2015
0
LINE
8
BLACK
6
CONTINUOUS
10
120.927
20
-71.2015
11
121.074
21
-71.3001
0
LINE
8
BLACK
6
CONTINUOUS
10
121.074
20
-71.3001
11
121.2
21
-71.4256
0
LINE
8
BLACK
6
CONTINUOUS
10
121.2
20
-71.4256
11
121.298
21
-71.5732
0
LINE
8
BLACK
6
CONTINUOUS
10
121.298
20
-71.5732
11
121.366
21
-71.7372
0
LINE
8
BLACK
6
CONTINUOUS
10
121.366
20
-71.7372
11
121.401
21
-71.9113
0
LINE
8
BLACK
6
CONTINUOUS
10
121.401
20
-71.9113
11
121.401
21
-72.0887
0
LINE
8
BLACK
6
CONTINUOUS
10
121.401
20
-72.0887
11
121.366
21
-72.2628
0
LINE
8
BLACK
6
CONTINUOUS
10
121.366
20
-72.2628
11
121.298
21
-72.4268
0
LINE
8
BLACK
6
CONTINUOUS
10
121.298
20
-72.4268
11
121.2
21
-72.5744
0
LINE
8
BLACK
6
CONTINUOUS
10
121.2
20
-72.5744
11
121.074
21
-72.6999
0
LINE
8
BLACK
6
CONTINUOUS
10
121.074
20
-72.6999
11
120.927
21
-72.7985
0
LINE
8
BLACK
6
CONTINUOUS
10
120.927
20
-72.7985
11
120.763
21
-72.8664
0
LINE
8
BLACK
6
CONTINUOUS
10
120.763
20
-72.8664
11
120.589
21
-72.901
0
LINE
8
BLACK
6
CONTINUOUS
10
120.589
20
-72.901
11
120.411
21
-72.901
0
LINE
8
BLACK
6
CONTINUOUS
10
120.411
20
-72.901
11
120.237
21
-72.8664
0
LINE
8
BLACK
6
CONTINUOUS
10
120.237
20
-72.8664
11
120.073
21
-72.7985
0
LINE
8
BLACK
6
CONTINUOUS
10
120.073
20
-72.7985
11
119.926
21
-72.6999
0
LINE
8
BLACK
6
CONTINUOUS
10
119.926
20
-72.6999
11
119.8
21
-72.5744
0
LINE
8
BLACK
6
CONTINUOUS
10
119.8
20
-72.5744
11
119.702
21
-72.4268
0
LINE
8
BLACK
6
CONTINUOUS
10
119.702
20
-72.4268
11
119.634
21
-72.2628
0
LINE
8
BLACK
6
CONTINUOUS
10
119.634
20
-72.2628
11
119.599
21
-72.0887
0
LINE
8
BLACK
6
CONTINUOUS
10
119.599
20
-72.0887
11
119.599
21
-71.9113
0
LINE
8
BLACK
6
CONTINUOUS
10
119.599
20
-71.9113
11
119.634
21
-71.7372
0
LINE
8
BLACK
6
CONTINUOUS
10
119.634
20
-71.7372
11
119.702
21
-71.5732
0
LINE
8
BLACK
6
CONTINUOUS
10
119.702
20
-71.5732
11
119.8
21
-71.4256
0
LINE
8
BLACK
6
CONTINUOUS
10
119.8
20
-71.4256
11
119.926
21
-71.3001
0
LINE
8
BLACK
6
CONTINUOUS
10
119.926
20
-71.3001
11
120.073
21
-71.2015
0
LINE
8
BLACK
6
CONTINUOUS
10
120.073
20
-71.2015
11
120.237
21
-71.1336
0
LINE
8
BLACK
6
CONTINUOUS
10
120.237
20
-71.1336
11
120.293
21
-71.1226
0
LINE
8
BLACK
6
CONTINUOUS
10
120.293
20
-71.1226
11
120.316
21
-71.1155
0
LINE
8
BLACK
6
CONTINUOUS
10
120.316
20
-71.1155
11
120.338
21
-71.1039
0
LINE
8
BLACK
6
CONTINUOUS
10
120.338
20
-71.1039
11
120.357
21
-71.0884
0
LINE
8
BLACK
6
CONTINUOUS
10
120.357
20
-71.0884
11
120.372
21
-71.0694
0
LINE
8
BLACK
6
CONTINUOUS
10
120.372
20
-71.0694
11
120.384
21
-71.0478
0
LINE
8
BLACK
6
CONTINUOUS
10
120.384
20
-71.0478
11
120.391
21
-71.0244
0
LINE
8
BLACK
6
CONTINUOUS
10
120.391
20
-71.0244
11
120.393
21
-71
0
LINE
8
BLACK
6
CONTINUOUS
10
120.393
20
-71
11
120.391
21
-70.9756
0
LINE
8
BLACK
6
CONTINUOUS
10
120.391
20
-70.9756
11
120.384
21
-70.9522
0
LINE
8
BLACK
6
CONTINUOUS
10
120.384
20
-70.9522
11
120.372
21
-70.9306
0
LINE
8
BLACK
6
CONTINUOUS
10
120.372
20
-70.9306
11
120.357
21
-70.9116
0
LINE
8
BLACK
6
CONTINUOUS
10
120.357
20
-70.9116
11
120.338
21
-70.8961
0
LINE
8
BLACK
6
CONTINUOUS
10
120.338
20
-70.8961
11
120.316
21
-70.8845
0
LINE
8
BLACK
6
CONTINUOUS
10
120.316
20
-70.8845
11
120.293
21
-70.8774
0
LINE
8
BLACK
6
CONTINUOUS
10
120.293
20
-70.8774
11
120.237
21
-70.8664
0
LINE
8
BLACK
6
CONTINUOUS
10
120.237
20
-70.8664
11
120.073
21
-70.7985
0
LINE
8
BLACK
6
CONTINUOUS
10
120.073
20
-70.7985
11
119.926
21
-70.6999
0
LINE
8
BLACK
6
CONTINUOUS
10
119.926
20
-70.6999
11
119.8
21
-70.5744
0
LINE
8
BLACK
6
CONTINUOUS
10
119.8
20
-70.5744
11
119.702
21
-70.4268
0
LINE
8
BLACK
6
CONTINUOUS
10
119.702
20
-70.4268
11
119.634
21
-70.2628
0
LINE
8
BLACK
6
CONTINUOUS
10
119.634
20
-70.2628
11
119.599
21
-70.0887
0
LINE
8
BLACK
6
CONTINUOUS
10
119.599
20
-70.0887
11
119.599
21
-69.9113
0
LINE
8
BLACK
6
CONTINUOUS
10
119.599
20
-69.9113
11
119.634
21
-69.7372
0
LINE
8
BLACK
6
CONTINUOUS
10
119.634
20
-69.7372
11
119.702
21
-69.5732
0
LINE
8
BLACK
6
CONTINUOUS
10
119.702
20
-69.5732
11
119.8
21
-69.4256
0
LINE
8
BLACK
6
CONTINUOUS
10
119.8
20
-69.4256
11
119.926
21
-69.3001
0
LINE
8
BLACK
6
CONTINUOUS
10
119.926
20
-69.3001
11
120.073
21
-69.2015
0
LINE
8
BLACK
6
CONTINUOUS
10
120.073
20
-69.2015
11
120.237
21
-69.1336
0
LINE
8
BLACK
6
CONTINUOUS
10
120.237
20
-69.1336
11
120.411
21
-69.099
0
LINE
8
BLACK
6
CONTINUOUS
10
120.411
20
-69.099
11
120.589
21
-69.099
0
LINE
8
BLACK
6
CONTINUOUS
10
120.589
20
-69.099
11
120.763
21
-69.1336
0
LINE
8
BLACK
6
CONTINUOUS
10
106.711
20
-69.9329
11
106.743
21
-69.9428
0
LINE
8
BLACK
6
CONTINUOUS
10
106.743
20
-69.9428
11
106.773
21
-69.9588
0
LINE
8
BLACK
6
CONTINUOUS
10
106.773
20
-69.9588
11
106.8
21
-69.9804
0
LINE
8
BLACK
6
CONTINUOUS
10
106.8
20
-69.9804
11
106.821
21
-70.0067
0
LINE
8
BLACK
6
CONTINUOUS
10
106.821
20
-70.0067
11
106.837
21
-70.0367
0
LINE
8
BLACK
6
CONTINUOUS
10
106.837
20
-70.0367
11
106.847
21
-70.0693
0
LINE
8
BLACK
6
CONTINUOUS
10
106.847
20
-70.0693
11
106.851
21
-70.1093
0
LINE
8
BLACK
6
CONTINUOUS
10
106.851
20
-70.1093
11
106.851
21
-71.6507
0
LINE
8
BLACK
6
CONTINUOUS
10
106.851
20
-71.6507
11
106.847
21
-71.6907
0
LINE
8
BLACK
6
CONTINUOUS
10
106.847
20
-71.6907
11
106.837
21
-71.7233
0
LINE
8
BLACK
6
CONTINUOUS
10
106.837
20
-71.7233
11
106.821
21
-71.7533
0
LINE
8
BLACK
6
CONTINUOUS
10
106.821
20
-71.7533
11
106.8
21
-71.7796
0
LINE
8
BLACK
6
CONTINUOUS
10
106.8
20
-71.7796
11
106.773
21
-71.8012
0
LINE
8
BLACK
6
CONTINUOUS
10
106.773
20
-71.8012
11
106.743
21
-71.8172
0
LINE
8
BLACK
6
CONTINUOUS
10
106.743
20
-71.8172
11
106.711
21
-71.8271
0
LINE
8
BLACK
6
CONTINUOUS
10
106.711
20
-71.8271
11
106.671
21
-71.831
0
LINE
8
BLACK
6
CONTINUOUS
10
106.671
20
-71.831
11
103.329
21
-71.831
0
LINE
8
BLACK
6
CONTINUOUS
10
103.329
20
-71.831
11
103.289
21
-71.8271
0
LINE
8
BLACK
6
CONTINUOUS
10
103.289
20
-71.8271
11
103.257
21
-71.8172
0
LINE
8
BLACK
6
CONTINUOUS
10
103.257
20
-71.8172
11
103.227
21
-71.8012
0
LINE
8
BLACK
6
CONTINUOUS
10
103.227
20
-71.8012
11
103.2
21
-71.7796
0
LINE
8
BLACK
6
CONTINUOUS
10
103.2
20
-71.7796
11
103.179
21
-71.7533
0
LINE
8
BLACK
6
CONTINUOUS
10
103.179
20
-71.7533
11
103.163
21
-71.7233
0
LINE
8
BLACK
6
CONTINUOUS
10
103.163
20
-71.7233
11
103.153
21
-71.6907
0
LINE
8
BLACK
6
CONTINUOUS
10
103.153
20
-71.6907
11
103.149
21
-71.6507
0
LINE
8
BLACK
6
CONTINUOUS
10
103.149
20
-71.6507
11
103.149
21
-70.1093
0
LINE
8
BLACK
6
CONTINUOUS
10
103.149
20
-70.1093
11
103.153
21
-70.0693
0
LINE
8
BLACK
6
CONTINUOUS
10
103.153
20
-70.0693
11
103.163
21
-70.0367
0
LINE
8
BLACK
6
CONTINUOUS
10
103.163
20
-70.0367
11
103.179
21
-70.0067
0
LINE
8
BLACK
6
CONTINUOUS
10
103.179
20
-70.0067
11
103.2
21
-69.9804
0
LINE
8
BLACK
6
CONTINUOUS
10
103.2
20
-69.9804
11
103.227
21
-69.9588
0
LINE
8
BLACK
6
CONTINUOUS
10
103.227
20
-69.9588
11
103.257
21
-69.9428
0
LINE
8
BLACK
6
CONTINUOUS
10
103.257
20
-69.9428
11
103.289
21
-69.9329
0
LINE
8
BLACK
6
CONTINUOUS
10
103.289
20
-69.9329
11
103.329
21
-69.929
0
LINE
8
BLACK
6
CONTINUOUS
10
103.329
20
-69.929
11
106.671
21
-69.929
0
LINE
8
BLACK
6
CONTINUOUS
10
106.671
20
-69.929
11
106.711
21
-69.9329
0
LINE
8
BLACK
6
CONTINUOUS
10
125.795
20
-65.5582
11
126.123
21
-65.694
0
LINE
8
BLACK
6
CONTINUOUS
10
126.123
20
-65.694
11
126.418
21
-65.8911
0
LINE
8
BLACK
6
CONTINUOUS
10
126.418
20
-65.8911
11
126.669
21
-66.1419
0
LINE
8
BLACK
6
CONTINUOUS
10
126.669
20
-66.1419
11
126.866
21
-66.4369
0
LINE
8
BLACK
6
CONTINUOUS
10
126.866
20
-66.4369
11
127.002
21
-66.7647
0
LINE
8
BLACK
6
CONTINUOUS
10
127.002
20
-66.7647
11
127.071
21
-67.1126
0
LINE
8
BLACK
6
CONTINUOUS
10
127.071
20
-67.1126
11
127.071
21
-67.4674
0
LINE
8
BLACK
6
CONTINUOUS
10
127.071
20
-67.4674
11
127.002
21
-67.8153
0
LINE
8
BLACK
6
CONTINUOUS
10
127.002
20
-67.8153
11
126.866
21
-68.1431
0
LINE
8
BLACK
6
CONTINUOUS
10
126.866
20
-68.1431
11
126.669
21
-68.4381
0
LINE
8
BLACK
6
CONTINUOUS
10
126.669
20
-68.4381
11
126.418
21
-68.6889
0
LINE
8
BLACK
6
CONTINUOUS
10
126.418
20
-68.6889
11
126.123
21
-68.886
0
LINE
8
BLACK
6
CONTINUOUS
10
126.123
20
-68.886
11
125.795
21
-69.0218
0
LINE
8
BLACK
6
CONTINUOUS
10
125.795
20
-69.0218
11
125.447
21
-69.091
0
LINE
8
BLACK
6
CONTINUOUS
10
125.447
20
-69.091
11
125.093
21
-69.091
0
LINE
8
BLACK
6
CONTINUOUS
10
125.093
20
-69.091
11
124.745
21
-69.0218
0
LINE
8
BLACK
6
CONTINUOUS
10
124.745
20
-69.0218
11
124.417
21
-68.886
0
LINE
8
BLACK
6
CONTINUOUS
10
124.417
20
-68.886
11
124.122
21
-68.6889
0
LINE
8
BLACK
6
CONTINUOUS
10
124.122
20
-68.6889
11
123.871
21
-68.4381
0
LINE
8
BLACK
6
CONTINUOUS
10
123.871
20
-68.4381
11
123.674
21
-68.1431
0
LINE
8
BLACK
6
CONTINUOUS
10
123.674
20
-68.1431
11
123.538
21
-67.8153
0
LINE
8
BLACK
6
CONTINUOUS
10
123.538
20
-67.8153
11
123.469
21
-67.4674
0
LINE
8
BLACK
6
CONTINUOUS
10
123.469
20
-67.4674
11
123.469
21
-67.1126
0
LINE
8
BLACK
6
CONTINUOUS
10
123.469
20
-67.1126
11
123.538
21
-66.7647
0
LINE
8
BLACK
6
CONTINUOUS
10
123.538
20
-66.7647
11
123.674
21
-66.4369
0
LINE
8
BLACK
6
CONTINUOUS
10
123.674
20
-66.4369
11
123.871
21
-66.1419
0
LINE
8
BLACK
6
CONTINUOUS
10
123.871
20
-66.1419
11
124.122
21
-65.8911
0
LINE
8
BLACK
6
CONTINUOUS
10
124.122
20
-65.8911
11
124.417
21
-65.694
0
LINE
8
BLACK
6
CONTINUOUS
10
124.417
20
-65.694
11
124.745
21
-65.5582
0
LINE
8
BLACK
6
CONTINUOUS
10
124.745
20
-65.5582
11
125.093
21
-65.489
0
LINE
8
BLACK
6
CONTINUOUS
10
125.093
20
-65.489
11
125.447
21
-65.489
0
LINE
8
BLACK
6
CONTINUOUS
10
125.447
20
-65.489
11
125.795
21
-65.5582
0
LINE
8
BLACK
6
CONTINUOUS
10
113.755
20
-65.5582
11
114.083
21
-65.694
0
LINE
8
BLACK
6
CONTINUOUS
10
114.083
20
-65.694
11
114.378
21
-65.8911
0
LINE
8
BLACK
6
CONTINUOUS
10
114.378
20
-65.8911
11
114.629
21
-66.1419
0
LINE
8
BLACK
6
CONTINUOUS
10
114.629
20
-66.1419
11
114.826
21
-66.4369
0
LINE
8
BLACK
6
CONTINUOUS
10
114.826
20
-66.4369
11
114.962
21
-66.7647
0
LINE
8
BLACK
6
CONTINUOUS
10
114.962
20
-66.7647
11
115.031
21
-67.1126
0
LINE
8
BLACK
6
CONTINUOUS
10
115.031
20
-67.1126
11
115.031
21
-67.4674
0
LINE
8
BLACK
6
CONTINUOUS
10
115.031
20
-67.4674
11
114.962
21
-67.8153
0
LINE
8
BLACK
6
CONTINUOUS
10
114.962
20
-67.8153
11
114.826
21
-68.1431
0
LINE
8
BLACK
6
CONTINUOUS
10
114.826
20
-68.1431
11
114.629
21
-68.4381
0
LINE
8
BLACK
6
CONTINUOUS
10
114.629
20
-68.4381
11
114.378
21
-68.6889
0
LINE
8
BLACK
6
CONTINUOUS
10
114.378
20
-68.6889
11
114.083
21
-68.886
0
LINE
8
BLACK
6
CONTINUOUS
10
114.083
20
-68.886
11
113.755
21
-69.0218
0
LINE
8
BLACK
6
CONTINUOUS
10
113.755
20
-69.0218
11
113.407
21
-69.091
0
LINE
8
BLACK
6
CONTINUOUS
10
113.407
20
-69.091
11
113.053
21
-69.091
0
LINE
8
BLACK
6
CONTINUOUS
10
113.053
20
-69.091
11
112.705
21
-69.0218
0
LINE
8
BLACK
6
CONTINUOUS
10
112.705
20
-69.0218
11
112.377
21
-68.886
0
LINE
8
BLACK
6
CONTINUOUS
10
112.377
20
-68.886
11
112.082
21
-68.6889
0
LINE
8
BLACK
6
CONTINUOUS
10
112.082
20
-68.6889
11
111.831
21
-68.4381
0
LINE
8
BLACK
6
CONTINUOUS
10
111.831
20
-68.4381
11
111.634
21
-68.1431
0
LINE
8
BLACK
6
CONTINUOUS
10
111.634
20
-68.1431
11
111.498
21
-67.8153
0
LINE
8
BLACK
6
CONTINUOUS
10
111.498
20
-67.8153
11
111.429
21
-67.4674
0
LINE
8
BLACK
6
CONTINUOUS
10
111.429
20
-67.4674
11
111.429
21
-67.1126
0
LINE
8
BLACK
6
CONTINUOUS
10
111.429
20
-67.1126
11
111.498
21
-66.7647
0
LINE
8
BLACK
6
CONTINUOUS
10
111.498
20
-66.7647
11
111.634
21
-66.4369
0
LINE
8
BLACK
6
CONTINUOUS
10
111.634
20
-66.4369
11
111.831
21
-66.1419
0
LINE
8
BLACK
6
CONTINUOUS
10
111.831
20
-66.1419
11
112.082
21
-65.8911
0
LINE
8
BLACK
6
CONTINUOUS
10
112.082
20
-65.8911
11
112.377
21
-65.694
0
LINE
8
BLACK
6
CONTINUOUS
10
112.377
20
-65.694
11
112.705
21
-65.5582
0
LINE
8
BLACK
6
CONTINUOUS
10
112.705
20
-65.5582
11
113.053
21
-65.489
0
LINE
8
BLACK
6
CONTINUOUS
10
113.053
20
-65.489
11
113.407
21
-65.489
0
LINE
8
BLACK
6
CONTINUOUS
10
113.407
20
-65.489
11
113.755
21
-65.5582
0
LINE
8
BLACK
6
CONTINUOUS
10
103.744
20
-57.547
11
103.744
21
-57.547
0
LINE
8
BLACK
6
CONTINUOUS
10
103.744
20
-57.547
11
103.744
21
-57.547
0
LINE
8
BLACK
6
CONTINUOUS
10
103.744
20
-57.547
11
104.208
21
-57.7393
0
LINE
8
BLACK
6
CONTINUOUS
10
104.208
20
-57.7393
11
104.624
21
-58.0172
0
LINE
8
BLACK
6
CONTINUOUS
10
104.624
20
-58.0172
11
104.626
21
-58.0185
0
LINE
8
BLACK
6
CONTINUOUS
10
104.626
20
-58.0185
11
104.981
21
-58.3738
0
LINE
8
BLACK
6
CONTINUOUS
10
104.981
20
-58.3738
11
104.981
21
-58.3738
0
LINE
8
BLACK
6
CONTINUOUS
10
104.981
20
-58.3738
11
105.261
21
-58.7916
0
LINE
8
BLACK
6
CONTINUOUS
10
105.261
20
-58.7916
11
105.453
21
-59.2559
0
LINE
8
BLACK
6
CONTINUOUS
10
105.453
20
-59.2559
11
105.551
21
-59.7487
0
LINE
8
BLACK
6
CONTINUOUS
10
105.551
20
-59.7487
11
105.551
21
-60.2513
0
LINE
8
BLACK
6
CONTINUOUS
10
105.551
20
-60.2513
11
105.453
21
-60.7441
0
LINE
8
BLACK
6
CONTINUOUS
10
105.453
20
-60.7441
11
105.261
21
-61.2084
0
LINE
8
BLACK
6
CONTINUOUS
10
105.261
20
-61.2084
11
104.983
21
-61.6243
0
LINE
8
BLACK
6
CONTINUOUS
10
104.983
20
-61.6243
11
104.981
21
-61.6262
0
LINE
8
BLACK
6
CONTINUOUS
10
104.981
20
-61.6262
11
104.626
21
-61.9815
0
LINE
8
BLACK
6
CONTINUOUS
10
104.626
20
-61.9815
11
104.626
21
-61.9815
0
LINE
8
BLACK
6
CONTINUOUS
10
104.626
20
-61.9815
11
104.208
21
-62.2607
0
LINE
8
BLACK
6
CONTINUOUS
10
104.208
20
-62.2607
11
103.744
21
-62.453
0
LINE
8
BLACK
6
CONTINUOUS
10
103.744
20
-62.453
11
103.744
21
-62.453
0
LINE
8
BLACK
6
CONTINUOUS
10
103.744
20
-62.453
11
103.744
21
-62.453
0
LINE
8
BLACK
6
CONTINUOUS
10
103.744
20
-62.453
11
103.251
21
-62.551
0
LINE
8
BLACK
6
CONTINUOUS
10
103.251
20
-62.551
11
102.749
21
-62.551
0
LINE
8
BLACK
6
CONTINUOUS
10
102.749
20
-62.551
11
102.256
21
-62.453
0
LINE
8
BLACK
6
CONTINUOUS
10
102.256
20
-62.453
11
102.256
21
-62.453
0
LINE
8
BLACK
6
CONTINUOUS
10
102.256
20
-62.453
11
102.256
21
-62.453
0
LINE
8
BLACK
6
CONTINUOUS
10
102.256
20
-62.453
11
101.792
21
-62.2607
0
LINE
8
BLACK
6
CONTINUOUS
10
101.792
20
-62.2607
11
101.374
21
-61.9815
0
LINE
8
BLACK
6
CONTINUOUS
10
101.374
20
-61.9815
11
101.374
21
-61.9815
0
LINE
8
BLACK
6
CONTINUOUS
10
101.374
20
-61.9815
11
101.019
21
-61.6262
0
LINE
8
BLACK
6
CONTINUOUS
10
101.019
20
-61.6262
11
101.017
21
-61.6243
0
LINE
8
BLACK
6
CONTINUOUS
10
101.017
20
-61.6243
11
100.739
21
-61.2084
0
LINE
8
BLACK
6
CONTINUOUS
10
100.739
20
-61.2084
11
100.547
21
-60.7441
0
LINE
8
BLACK
6
CONTINUOUS
10
100.547
20
-60.7441
11
100.449
21
-60.2513
0
LINE
8
BLACK
6
CONTINUOUS
10
100.449
20
-60.2513
11
100.449
21
-59.7487
0
LINE
8
BLACK
6
CONTINUOUS
10
100.449
20
-59.7487
11
100.547
21
-59.2559
0
LINE
8
BLACK
6
CONTINUOUS
10
100.547
20
-59.2559
11
100.739
21
-58.7916
0
LINE
8
BLACK
6
CONTINUOUS
10
100.739
20
-58.7916
11
101.019
21
-58.3738
0
LINE
8
BLACK
6
CONTINUOUS
10
101.019
20
-58.3738
11
101.019
21
-58.3738
0
LINE
8
BLACK
6
CONTINUOUS
10
101.019
20
-58.3738
11
101.374
21
-58.0185
0
LINE
8
BLACK
6
CONTINUOUS
10
101.374
20
-58.0185
11
101.376
21
-58.0172
0
LINE
8
BLACK
6
CONTINUOUS
10
101.376
20
-58.0172
11
101.792
21
-57.7393
0
LINE
8
BLACK
6
CONTINUOUS
10
101.792
20
-57.7393
11
102.256
21
-57.547
0
LINE
8
BLACK
6
CONTINUOUS
10
102.256
20
-57.547
11
102.256
21
-57.547
0
LINE
8
BLACK
6
CONTINUOUS
10
102.256
20
-57.547
11
102.256
21
-57.547
0
LINE
8
BLACK
6
CONTINUOUS
10
102.256
20
-57.547
11
102.749
21
-57.449
0
LINE
8
BLACK
6
CONTINUOUS
10
102.749
20
-57.449
11
103.251
21
-57.449
0
LINE
8
BLACK
6
CONTINUOUS
10
103.251
20
-57.449
11
103.744
21
-57.547
0
LINE
8
BLACK
6
CONTINUOUS
10
167.744
20
-57.547
11
167.744
21
-57.547
0
LINE
8
BLACK
6
CONTINUOUS
10
167.744
20
-57.547
11
167.744
21
-57.547
0
LINE
8
BLACK
6
CONTINUOUS
10
167.744
20
-57.547
11
168.208
21
-57.7393
0
LINE
8
BLACK
6
CONTINUOUS
10
168.208
20
-57.7393
11
168.624
21
-58.0172
0
LINE
8
BLACK
6
CONTINUOUS
10
168.624
20
-58.0172
11
168.626
21
-58.0185
0
LINE
8
BLACK
6
CONTINUOUS
10
168.626
20
-58.0185
11
168.981
21
-58.3738
0
LINE
8
BLACK
6
CONTINUOUS
10
168.981
20
-58.3738
11
168.981
21
-58.3738
0
LINE
8
BLACK
6
CONTINUOUS
10
168.981
20
-58.3738
11
169.261
21
-58.7916
0
LINE
8
BLACK
6
CONTINUOUS
10
169.261
20
-58.7916
11
169.453
21
-59.2559
0
LINE
8
BLACK
6
CONTINUOUS
10
169.453
20
-59.2559
11
169.551
21
-59.7487
0
LINE
8
BLACK
6
CONTINUOUS
10
169.551
20
-59.7487
11
169.551
21
-60.2513
0
LINE
8
BLACK
6
CONTINUOUS
10
169.551
20
-60.2513
11
169.453
21
-60.7441
0
LINE
8
BLACK
6
CONTINUOUS
10
169.453
20
-60.7441
11
169.261
21
-61.2084
0
LINE
8
BLACK
6
CONTINUOUS
10
169.261
20
-61.2084
11
168.983
21
-61.6243
0
LINE
8
BLACK
6
CONTINUOUS
10
168.983
20
-61.6243
11
168.981
21
-61.6262
0
LINE
8
BLACK
6
CONTINUOUS
10
168.981
20
-61.6262
11
168.626
21
-61.9815
0
LINE
8
BLACK
6
CONTINUOUS
10
168.626
20
-61.9815
11
168.626
21
-61.9815
0
LINE
8
BLACK
6
CONTINUOUS
10
168.626
20
-61.9815
11
168.208
21
-62.2607
0
LINE
8
BLACK
6
CONTINUOUS
10
168.208
20
-62.2607
11
167.744
21
-62.453
0
LINE
8
BLACK
6
CONTINUOUS
10
167.744
20
-62.453
11
167.744
21
-62.453
0
LINE
8
BLACK
6
CONTINUOUS
10
167.744
20
-62.453
11
167.744
21
-62.453
0
LINE
8
BLACK
6
CONTINUOUS
10
167.744
20
-62.453
11
167.251
21
-62.551
0
LINE
8
BLACK
6
CONTINUOUS
10
167.251
20
-62.551
11
166.749
21
-62.551
0
LINE
8
BLACK
6
CONTINUOUS
10
166.749
20
-62.551
11
166.256
21
-62.453
0
LINE
8
BLACK
6
CONTINUOUS
10
166.256
20
-62.453
11
166.256
21
-62.453
0
LINE
8
BLACK
6
CONTINUOUS
10
166.256
20
-62.453
11
166.256
21
-62.453
0
LINE
8
BLACK
6
CONTINUOUS
10
166.256
20
-62.453
11
165.792
21
-62.2607
0
LINE
8
BLACK
6
CONTINUOUS
10
165.792
20
-62.2607
11
165.374
21
-61.9815
0
LINE
8
BLACK
6
CONTINUOUS
10
165.374
20
-61.9815
11
165.374
21
-61.9815
0
LINE
8
BLACK
6
CONTINUOUS
10
165.374
20
-61.9815
11
165.019
21
-61.6262
0
LINE
8
BLACK
6
CONTINUOUS
10
165.019
20
-61.6262
11
165.017
21
-61.6243
0
LINE
8
BLACK
6
CONTINUOUS
10
165.017
20
-61.6243
11
164.739
21
-61.2084
0
LINE
8
BLACK
6
CONTINUOUS
10
164.739
20
-61.2084
11
164.547
21
-60.7441
0
LINE
8
BLACK
6
CONTINUOUS
10
164.547
20
-60.7441
11
164.449
21
-60.2513
0
LINE
8
BLACK
6
CONTINUOUS
10
164.449
20
-60.2513
11
164.449
21
-59.7487
0
LINE
8
BLACK
6
CONTINUOUS
10
164.449
20
-59.7487
11
164.547
21
-59.2559
0
LINE
8
BLACK
6
CONTINUOUS
10
164.547
20
-59.2559
11
164.739
21
-58.7916
0
LINE
8
BLACK
6
CONTINUOUS
10
164.739
20
-58.7916
11
165.019
21
-58.3738
0
LINE
8
BLACK
6
CONTINUOUS
10
165.019
20
-58.3738
11
165.019
21
-58.3738
0
LINE
8
BLACK
6
CONTINUOUS
10
165.019
20
-58.3738
11
165.374
21
-58.0185
0
LINE
8
BLACK
6
CONTINUOUS
10
165.374
20
-58.0185
11
165.376
21
-58.0172
0
LINE
8
BLACK
6
CONTINUOUS
10
165.376
20
-58.0172
11
165.792
21
-57.7393
0
LINE
8
BLACK
6
CONTINUOUS
10
165.792
20
-57.7393
11
166.256
21
-57.547
0
LINE
8
BLACK
6
CONTINUOUS
10
166.256
20
-57.547
11
166.256
21
-57.547
0
LINE
8
BLACK
6
CONTINUOUS
10
166.256
20
-57.547
11
166.256
21
-57.547
0
LINE
8
BLACK
6
CONTINUOUS
10
166.256
20
-57.547
11
166.749
21
-57.449
0
LINE
8
BLACK
6
CONTINUOUS
10
166.749
20
-57.449
11
167.251
21
-57.449
0
LINE
8
BLACK
6
CONTINUOUS
10
167.251
20
-57.449
11
167.744
21
-57.547
  0
ENDSEC
  0
EOF
