  0
SECTION
  2
HEADER
  9
$ANGBASE
  50
0.0
  9
$ANGDIR
  70
  1
  9
$MEASUREMENT
  70
0
  0
ENDSEC
  0
SECTION
  2
TABLES
  0
TABLE
  2
LTYPE
  70
4
  0
LTYPE
  5
40F
  2
CONTINUOUS
  70
0
  3
Solid line
  72
65
  73
0
  40
0.0
  0
LTYPE
  5
410
  2
DASHDOT
 70
0
  3
Dash Dot ____ _ ____ _
 72
65
 73
4
 40
2.0
 49
1.25
 49
-0.25
 49
0.25
 49
-0.25
  0
LTYPE
  5
411
  2
DASHED
 70
0
  3
Dashed __ __ __ __ __
 72
65
 73
2
 40
0.75
 49
0.5
 49
-0.25
  0
LTYPE
  5
43B
  2
DOTTED
 70
0
  3
Dotted .  .  .  .
 72
65
 73
2
 40
0.2
 49
0.0
 49
-0.2
  0
ENDTAB
  0
TABLE
  2
STYLE
  70
4
  0
STYLE
  2
KICAD
  70
0
  40
0
  41
1
  42
1
  50
0
  71
0
  3
isocp.shx
  0
STYLE
  2
KICADB
  70
0
  40
0
  41
1
  42
1
  50
0
  71
0
  3
isocp.shx
  0
STYLE
  2
KICADI
  70
0
  40
0
  41
1
  42
1
  50
15
  71
0
  3
isocp.shx
  0
STYLE
  2
KICADBI
  70
0
  40
0
  41
1
  42
1
  50
15
  71
0
  3
isocp.shx
  0
ENDTAB
  0
TABLE
  2
LAYER
  70
30
  0
LAYER
  2
BLACK
  70
0
  62
7
  6
CONTINUOUS
  0
LAYER
  2
GRAY1
  70
0
  62
251
  6
CONTINUOUS
  0
LAYER
  2
GRAY2
  70
0
  62
8
  6
CONTINUOUS
  0
LAYER
  2
GRAY3
  70
0
  62
9
  6
CONTINUOUS
  0
LAYER
  2
WHITE
  70
0
  62
7
  6
CONTINUOUS
  0
LAYER
  2
LYELLOW
  70
0
  62
51
  6
CONTINUOUS
  0
LAYER
  2
BLUE1
  70
0
  62
178
  6
CONTINUOUS
  0
LAYER
  2
GREEN1
  70
0
  62
98
  6
CONTINUOUS
  0
LAYER
  2
CYAN1
  70
0
  62
138
  6
CONTINUOUS
  0
LAYER
  2
RED1
  70
0
  62
18
  6
CONTINUOUS
  0
LAYER
  2
MAGENTA1
  70
0
  62
228
  6
CONTINUOUS
  0
LAYER
  2
BROWN1
  70
0
  62
58
  6
CONTINUOUS
  0
LAYER
  2
BLUE2
  70
0
  62
5
  6
CONTINUOUS
  0
LAYER
  2
GREEN2
  70
0
  62
3
  6
CONTINUOUS
  0
LAYER
  2
CYAN2
  70
0
  62
4
  6
CONTINUOUS
  0
LAYER
  2
RED2
  70
0
  62
1
  6
CONTINUOUS
  0
LAYER
  2
MAGENTA2
  70
0
  62
6
  6
CONTINUOUS
  0
LAYER
  2
BROWN2
  70
0
  62
54
  6
CONTINUOUS
  0
LAYER
  2
BLUE3
  70
0
  62
171
  6
CONTINUOUS
  0
LAYER
  2
GREEN3
  70
0
  62
91
  6
CONTINUOUS
  0
LAYER
  2
CYAN3
  70
0
  62
131
  6
CONTINUOUS
  0
LAYER
  2
RED3
  70
0
  62
11
  6
CONTINUOUS
  0
LAYER
  2
MAGENTA3
  70
0
  62
221
  6
CONTINUOUS
  0
LAYER
  2
YELLOW3
  70
0
  62
2
  6
CONTINUOUS
  0
LAYER
  2
BLUE4
  70
0
  62
5
  6
CONTINUOUS
  0
LAYER
  2
GREEN4
  70
0
  62
3
  6
CONTINUOUS
  0
LAYER
  2
CYAN4
  70
0
  62
4
  6
CONTINUOUS
  0
LAYER
  2
RED4
  70
0
  62
1
  6
CONTINUOUS
  0
LAYER
  2
MAGENTA4
  70
0
  62
6
  6
CONTINUOUS
  0
LAYER
  2
YELLOW4
  70
0
  62
2
  6
CONTINUOUS
  0
ENDTAB
  0
ENDSEC
  0
SECTION
  2
ENTITIES
0
LINE
8
BLACK
6
CONTINUOUS
10
169.548
20
-80.913
11
169.548
21
-80.9174
0
LINE
8
BLACK
6
CONTINUOUS
10
169.548
20
-80.9174
11
169.545
21
-80.9212
0
LINE
8
BLACK
6
CONTINUOUS
10
169.545
20
-80.9212
11
169.544
21
-80.9254
0
LINE
8
BLACK
6
CONTINUOUS
10
169.544
20
-80.9254
11
169.541
21
-80.9288
0
LINE
8
BLACK
6
CONTINUOUS
10
169.541
20
-80.9288
11
169.539
21
-80.9326
0
LINE
8
BLACK
6
CONTINUOUS
10
169.539
20
-80.9326
11
169.535
21
-80.9355
0
LINE
8
BLACK
6
CONTINUOUS
10
169.535
20
-80.9355
11
169.533
21
-80.9389
0
LINE
8
BLACK
6
CONTINUOUS
10
169.533
20
-80.9389
11
169.529
21
-80.9411
0
LINE
8
BLACK
6
CONTINUOUS
10
169.529
20
-80.9411
11
169.525
21
-80.944
0
LINE
8
BLACK
6
CONTINUOUS
10
169.525
20
-80.944
11
169.521
21
-80.9455
0
LINE
8
BLACK
6
CONTINUOUS
10
169.521
20
-80.9455
11
169.517
21
-80.9477
0
LINE
8
BLACK
6
CONTINUOUS
10
169.517
20
-80.9477
11
169.513
21
-80.9485
0
LINE
8
BLACK
6
CONTINUOUS
10
169.513
20
-80.9485
11
169.509
21
-80.95
0
LINE
8
BLACK
6
CONTINUOUS
10
169.509
20
-80.95
11
164.991
21
-80.95
0
LINE
8
BLACK
6
CONTINUOUS
10
164.991
20
-80.95
11
164.987
21
-80.9485
0
LINE
8
BLACK
6
CONTINUOUS
10
164.987
20
-80.9485
11
164.983
21
-80.9477
0
LINE
8
BLACK
6
CONTINUOUS
10
164.983
20
-80.9477
11
164.979
21
-80.9455
0
LINE
8
BLACK
6
CONTINUOUS
10
164.979
20
-80.9455
11
164.975
21
-80.944
0
LINE
8
BLACK
6
CONTINUOUS
10
164.975
20
-80.944
11
164.971
21
-80.9411
0
LINE
8
BLACK
6
CONTINUOUS
10
164.971
20
-80.9411
11
164.967
21
-80.9389
0
LINE
8
BLACK
6
CONTINUOUS
10
164.967
20
-80.9389
11
164.965
21
-80.9355
0
LINE
8
BLACK
6
CONTINUOUS
10
164.965
20
-80.9355
11
164.961
21
-80.9326
0
LINE
8
BLACK
6
CONTINUOUS
10
164.961
20
-80.9326
11
164.959
21
-80.9288
0
LINE
8
BLACK
6
CONTINUOUS
10
164.959
20
-80.9288
11
164.956
21
-80.9254
0
LINE
8
BLACK
6
CONTINUOUS
10
164.956
20
-80.9254
11
164.955
21
-80.9212
0
LINE
8
BLACK
6
CONTINUOUS
10
164.955
20
-80.9212
11
164.952
21
-80.9174
0
LINE
8
BLACK
6
CONTINUOUS
10
164.952
20
-80.9174
11
164.952
21
-80.913
0
LINE
8
BLACK
6
CONTINUOUS
10
164.952
20
-80.913
11
164.95
21
-80.9088
0
LINE
8
BLACK
6
CONTINUOUS
10
164.95
20
-80.9088
11
164.95
21
-80.8912
0
LINE
8
BLACK
6
CONTINUOUS
10
164.95
20
-80.8912
11
164.95
21
-80.7956
0
LINE
8
BLACK
6
CONTINUOUS
10
164.95
20
-80.7956
11
164.952
21
-80.7826
0
LINE
8
BLACK
6
CONTINUOUS
10
164.952
20
-80.7826
11
164.961
21
-80.7674
0
LINE
8
BLACK
6
CONTINUOUS
10
164.961
20
-80.7674
11
164.975
21
-80.756
0
LINE
8
BLACK
6
CONTINUOUS
10
164.975
20
-80.756
11
164.991
21
-80.75
0
LINE
8
BLACK
6
CONTINUOUS
10
164.991
20
-80.75
11
165.009
21
-80.75
0
LINE
8
BLACK
6
CONTINUOUS
10
165.009
20
-80.75
11
165.025
21
-80.756
0
LINE
8
BLACK
6
CONTINUOUS
10
165.025
20
-80.756
11
165.039
21
-80.7674
0
LINE
8
BLACK
6
CONTINUOUS
10
165.039
20
-80.7674
11
165.048
21
-80.7826
0
LINE
8
BLACK
6
CONTINUOUS
10
165.048
20
-80.7826
11
165.05
21
-80.7956
0
LINE
8
BLACK
6
CONTINUOUS
10
165.05
20
-80.7956
11
165.05
21
-80.85
0
LINE
8
BLACK
6
CONTINUOUS
10
165.05
20
-80.85
11
169.45
21
-80.85
0
LINE
8
BLACK
6
CONTINUOUS
10
169.45
20
-80.85
11
169.45
21
-79.05
0
LINE
8
BLACK
6
CONTINUOUS
10
169.45
20
-79.05
11
165.05
21
-79.05
0
LINE
8
BLACK
6
CONTINUOUS
10
165.05
20
-79.05
11
165.05
21
-79.1044
0
LINE
8
BLACK
6
CONTINUOUS
10
165.05
20
-79.1044
11
165.048
21
-79.1174
0
LINE
8
BLACK
6
CONTINUOUS
10
165.048
20
-79.1174
11
165.039
21
-79.1326
0
LINE
8
BLACK
6
CONTINUOUS
10
165.039
20
-79.1326
11
165.025
21
-79.144
0
LINE
8
BLACK
6
CONTINUOUS
10
165.025
20
-79.144
11
165.009
21
-79.15
0
LINE
8
BLACK
6
CONTINUOUS
10
165.009
20
-79.15
11
164.991
21
-79.15
0
LINE
8
BLACK
6
CONTINUOUS
10
164.991
20
-79.15
11
164.975
21
-79.144
0
LINE
8
BLACK
6
CONTINUOUS
10
164.975
20
-79.144
11
164.961
21
-79.1326
0
LINE
8
BLACK
6
CONTINUOUS
10
164.961
20
-79.1326
11
164.952
21
-79.1174
0
LINE
8
BLACK
6
CONTINUOUS
10
164.952
20
-79.1174
11
164.95
21
-79.1044
0
LINE
8
BLACK
6
CONTINUOUS
10
164.95
20
-79.1044
11
164.95
21
-79.0088
0
LINE
8
BLACK
6
CONTINUOUS
10
164.95
20
-79.0088
11
164.95
21
-79.0088
0
LINE
8
BLACK
6
CONTINUOUS
10
164.95
20
-79.0088
11
164.95
21
-78.9912
0
LINE
8
BLACK
6
CONTINUOUS
10
164.95
20
-78.9912
11
164.952
21
-78.987
0
LINE
8
BLACK
6
CONTINUOUS
10
164.952
20
-78.987
11
164.952
21
-78.9826
0
LINE
8
BLACK
6
CONTINUOUS
10
164.952
20
-78.9826
11
164.955
21
-78.9788
0
LINE
8
BLACK
6
CONTINUOUS
10
164.955
20
-78.9788
11
164.956
21
-78.9746
0
LINE
8
BLACK
6
CONTINUOUS
10
164.956
20
-78.9746
11
164.959
21
-78.9712
0
LINE
8
BLACK
6
CONTINUOUS
10
164.959
20
-78.9712
11
164.961
21
-78.9674
0
LINE
8
BLACK
6
CONTINUOUS
10
164.961
20
-78.9674
11
164.965
21
-78.9645
0
LINE
8
BLACK
6
CONTINUOUS
10
164.965
20
-78.9645
11
164.967
21
-78.9611
0
LINE
8
BLACK
6
CONTINUOUS
10
164.967
20
-78.9611
11
164.971
21
-78.9589
0
LINE
8
BLACK
6
CONTINUOUS
10
164.971
20
-78.9589
11
164.975
21
-78.956
0
LINE
8
BLACK
6
CONTINUOUS
10
164.975
20
-78.956
11
164.979
21
-78.9545
0
LINE
8
BLACK
6
CONTINUOUS
10
164.979
20
-78.9545
11
164.983
21
-78.9523
0
LINE
8
BLACK
6
CONTINUOUS
10
164.983
20
-78.9523
11
164.987
21
-78.9515
0
LINE
8
BLACK
6
CONTINUOUS
10
164.987
20
-78.9515
11
164.991
21
-78.95
0
LINE
8
BLACK
6
CONTINUOUS
10
164.991
20
-78.95
11
169.45
21
-78.95
0
LINE
8
BLACK
6
CONTINUOUS
10
169.45
20
-78.95
11
169.45
21
-75.85
0
LINE
8
BLACK
6
CONTINUOUS
10
169.45
20
-75.85
11
164.991
21
-75.85
0
LINE
8
BLACK
6
CONTINUOUS
10
164.991
20
-75.85
11
164.987
21
-75.8485
0
LINE
8
BLACK
6
CONTINUOUS
10
164.987
20
-75.8485
11
164.983
21
-75.8477
0
LINE
8
BLACK
6
CONTINUOUS
10
164.983
20
-75.8477
11
164.979
21
-75.8455
0
LINE
8
BLACK
6
CONTINUOUS
10
164.979
20
-75.8455
11
164.975
21
-75.844
0
LINE
8
BLACK
6
CONTINUOUS
10
164.975
20
-75.844
11
164.971
21
-75.8411
0
LINE
8
BLACK
6
CONTINUOUS
10
164.971
20
-75.8411
11
164.967
21
-75.8389
0
LINE
8
BLACK
6
CONTINUOUS
10
164.967
20
-75.8389
11
164.965
21
-75.8355
0
LINE
8
BLACK
6
CONTINUOUS
10
164.965
20
-75.8355
11
164.961
21
-75.8326
0
LINE
8
BLACK
6
CONTINUOUS
10
164.961
20
-75.8326
11
164.959
21
-75.8288
0
LINE
8
BLACK
6
CONTINUOUS
10
164.959
20
-75.8288
11
164.956
21
-75.8254
0
LINE
8
BLACK
6
CONTINUOUS
10
164.956
20
-75.8254
11
164.955
21
-75.8212
0
LINE
8
BLACK
6
CONTINUOUS
10
164.955
20
-75.8212
11
164.952
21
-75.8174
0
LINE
8
BLACK
6
CONTINUOUS
10
164.952
20
-75.8174
11
164.952
21
-75.813
0
LINE
8
BLACK
6
CONTINUOUS
10
164.952
20
-75.813
11
164.95
21
-75.8088
0
LINE
8
BLACK
6
CONTINUOUS
10
164.95
20
-75.8088
11
164.95
21
-75.7912
0
LINE
8
BLACK
6
CONTINUOUS
10
164.95
20
-75.7912
11
164.95
21
-75.7912
0
LINE
8
BLACK
6
CONTINUOUS
10
164.95
20
-75.7912
11
164.95
21
-75.6956
0
LINE
8
BLACK
6
CONTINUOUS
10
164.95
20
-75.6956
11
164.952
21
-75.6826
0
LINE
8
BLACK
6
CONTINUOUS
10
164.952
20
-75.6826
11
164.961
21
-75.6674
0
LINE
8
BLACK
6
CONTINUOUS
10
164.961
20
-75.6674
11
164.975
21
-75.656
0
LINE
8
BLACK
6
CONTINUOUS
10
164.975
20
-75.656
11
164.991
21
-75.65
0
LINE
8
BLACK
6
CONTINUOUS
10
164.991
20
-75.65
11
165.009
21
-75.65
0
LINE
8
BLACK
6
CONTINUOUS
10
165.009
20
-75.65
11
165.025
21
-75.656
0
LINE
8
BLACK
6
CONTINUOUS
10
165.025
20
-75.656
11
165.039
21
-75.6674
0
LINE
8
BLACK
6
CONTINUOUS
10
165.039
20
-75.6674
11
165.048
21
-75.6826
0
LINE
8
BLACK
6
CONTINUOUS
10
165.048
20
-75.6826
11
165.05
21
-75.6956
0
LINE
8
BLACK
6
CONTINUOUS
10
165.05
20
-75.6956
11
165.05
21
-75.75
0
LINE
8
BLACK
6
CONTINUOUS
10
165.05
20
-75.75
11
169.45
21
-75.75
0
LINE
8
BLACK
6
CONTINUOUS
10
169.45
20
-75.75
11
169.45
21
-73.95
0
LINE
8
BLACK
6
CONTINUOUS
10
169.45
20
-73.95
11
165.05
21
-73.95
0
LINE
8
BLACK
6
CONTINUOUS
10
165.05
20
-73.95
11
165.05
21
-74.0044
0
LINE
8
BLACK
6
CONTINUOUS
10
165.05
20
-74.0044
11
165.048
21
-74.0174
0
LINE
8
BLACK
6
CONTINUOUS
10
165.048
20
-74.0174
11
165.039
21
-74.0326
0
LINE
8
BLACK
6
CONTINUOUS
10
165.039
20
-74.0326
11
165.025
21
-74.044
0
LINE
8
BLACK
6
CONTINUOUS
10
165.025
20
-74.044
11
165.009
21
-74.05
0
LINE
8
BLACK
6
CONTINUOUS
10
165.009
20
-74.05
11
164.991
21
-74.05
0
LINE
8
BLACK
6
CONTINUOUS
10
164.991
20
-74.05
11
164.975
21
-74.044
0
LINE
8
BLACK
6
CONTINUOUS
10
164.975
20
-74.044
11
164.961
21
-74.0326
0
LINE
8
BLACK
6
CONTINUOUS
10
164.961
20
-74.0326
11
164.952
21
-74.0174
0
LINE
8
BLACK
6
CONTINUOUS
10
164.952
20
-74.0174
11
164.95
21
-74.0044
0
LINE
8
BLACK
6
CONTINUOUS
10
164.95
20
-74.0044
11
164.95
21
-73.9088
0
LINE
8
BLACK
6
CONTINUOUS
10
164.95
20
-73.9088
11
164.95
21
-73.9088
0
LINE
8
BLACK
6
CONTINUOUS
10
164.95
20
-73.9088
11
164.95
21
-73.8912
0
LINE
8
BLACK
6
CONTINUOUS
10
164.95
20
-73.8912
11
164.952
21
-73.887
0
LINE
8
BLACK
6
CONTINUOUS
10
164.952
20
-73.887
11
164.952
21
-73.8826
0
LINE
8
BLACK
6
CONTINUOUS
10
164.952
20
-73.8826
11
164.955
21
-73.8788
0
LINE
8
BLACK
6
CONTINUOUS
10
164.955
20
-73.8788
11
164.956
21
-73.8746
0
LINE
8
BLACK
6
CONTINUOUS
10
164.956
20
-73.8746
11
164.959
21
-73.8712
0
LINE
8
BLACK
6
CONTINUOUS
10
164.959
20
-73.8712
11
164.961
21
-73.8674
0
LINE
8
BLACK
6
CONTINUOUS
10
164.961
20
-73.8674
11
164.965
21
-73.8645
0
LINE
8
BLACK
6
CONTINUOUS
10
164.965
20
-73.8645
11
164.967
21
-73.8611
0
LINE
8
BLACK
6
CONTINUOUS
10
164.967
20
-73.8611
11
164.971
21
-73.8589
0
LINE
8
BLACK
6
CONTINUOUS
10
164.971
20
-73.8589
11
164.975
21
-73.856
0
LINE
8
BLACK
6
CONTINUOUS
10
164.975
20
-73.856
11
164.979
21
-73.8545
0
LINE
8
BLACK
6
CONTINUOUS
10
164.979
20
-73.8545
11
164.983
21
-73.8523
0
LINE
8
BLACK
6
CONTINUOUS
10
164.983
20
-73.8523
11
164.987
21
-73.8515
0
LINE
8
BLACK
6
CONTINUOUS
10
164.987
20
-73.8515
11
164.991
21
-73.85
0
LINE
8
BLACK
6
CONTINUOUS
10
164.991
20
-73.85
11
169.509
21
-73.85
0
LINE
8
BLACK
6
CONTINUOUS
10
169.509
20
-73.85
11
169.513
21
-73.8515
0
LINE
8
BLACK
6
CONTINUOUS
10
169.513
20
-73.8515
11
169.517
21
-73.8523
0
LINE
8
BLACK
6
CONTINUOUS
10
169.517
20
-73.8523
11
169.521
21
-73.8545
0
LINE
8
BLACK
6
CONTINUOUS
10
169.521
20
-73.8545
11
169.525
21
-73.856
0
LINE
8
BLACK
6
CONTINUOUS
10
169.525
20
-73.856
11
169.529
21
-73.8589
0
LINE
8
BLACK
6
CONTINUOUS
10
169.529
20
-73.8589
11
169.533
21
-73.8611
0
LINE
8
BLACK
6
CONTINUOUS
10
169.533
20
-73.8611
11
169.535
21
-73.8645
0
LINE
8
BLACK
6
CONTINUOUS
10
169.535
20
-73.8645
11
169.539
21
-73.8674
0
LINE
8
BLACK
6
CONTINUOUS
10
169.539
20
-73.8674
11
169.541
21
-73.8712
0
LINE
8
BLACK
6
CONTINUOUS
10
169.541
20
-73.8712
11
169.544
21
-73.8746
0
LINE
8
BLACK
6
CONTINUOUS
10
169.544
20
-73.8746
11
169.545
21
-73.8788
0
LINE
8
BLACK
6
CONTINUOUS
10
169.545
20
-73.8788
11
169.548
21
-73.8826
0
LINE
8
BLACK
6
CONTINUOUS
10
169.548
20
-73.8826
11
169.548
21
-73.887
0
LINE
8
BLACK
6
CONTINUOUS
10
169.548
20
-73.887
11
169.55
21
-73.8912
0
LINE
8
BLACK
6
CONTINUOUS
10
169.55
20
-73.8912
11
169.55
21
-80.9088
0
LINE
8
BLACK
6
CONTINUOUS
10
169.55
20
-80.9088
11
169.548
21
-80.913
  0
ENDSEC
  0
EOF
