  0
SECTION
  2
HEADER
  9
$ANGBASE
  50
0.0
  9
$ANGDIR
  70
  1
  9
$MEASUREMENT
  70
0
  0
ENDSEC
  0
SECTION
  2
TABLES
  0
TABLE
  2
LTYPE
  70
4
  0
LTYPE
  5
40F
  2
CONTINUOUS
  70
0
  3
Solid line
  72
65
  73
0
  40
0.0
  0
LTYPE
  5
410
  2
DASHDOT
 70
0
  3
Dash Dot ____ _ ____ _
 72
65
 73
4
 40
2.0
 49
1.25
 49
-0.25
 49
0.25
 49
-0.25
  0
LTYPE
  5
411
  2
DASHED
 70
0
  3
Dashed __ __ __ __ __
 72
65
 73
2
 40
0.75
 49
0.5
 49
-0.25
  0
LTYPE
  5
43B
  2
DOTTED
 70
0
  3
Dotted .  .  .  .
 72
65
 73
2
 40
0.2
 49
0.0
 49
-0.2
  0
ENDTAB
  0
TABLE
  2
STYLE
  70
4
  0
STYLE
  2
KICAD
  70
0
  40
0
  41
1
  42
1
  50
0
  71
0
  3
isocp.shx
  0
STYLE
  2
KICADB
  70
0
  40
0
  41
1
  42
1
  50
0
  71
0
  3
isocp.shx
  0
STYLE
  2
KICADI
  70
0
  40
0
  41
1
  42
1
  50
15
  71
0
  3
isocp.shx
  0
STYLE
  2
KICADBI
  70
0
  40
0
  41
1
  42
1
  50
15
  71
0
  3
isocp.shx
  0
ENDTAB
  0
TABLE
  2
LAYER
  70
30
  0
LAYER
  2
BLACK
  70
0
  62
7
  6
CONTINUOUS
  0
LAYER
  2
GRAY1
  70
0
  62
251
  6
CONTINUOUS
  0
LAYER
  2
GRAY2
  70
0
  62
8
  6
CONTINUOUS
  0
LAYER
  2
GRAY3
  70
0
  62
9
  6
CONTINUOUS
  0
LAYER
  2
WHITE
  70
0
  62
7
  6
CONTINUOUS
  0
LAYER
  2
LYELLOW
  70
0
  62
51
  6
CONTINUOUS
  0
LAYER
  2
BLUE1
  70
0
  62
178
  6
CONTINUOUS
  0
LAYER
  2
GREEN1
  70
0
  62
98
  6
CONTINUOUS
  0
LAYER
  2
CYAN1
  70
0
  62
138
  6
CONTINUOUS
  0
LAYER
  2
RED1
  70
0
  62
18
  6
CONTINUOUS
  0
LAYER
  2
MAGENTA1
  70
0
  62
228
  6
CONTINUOUS
  0
LAYER
  2
BROWN1
  70
0
  62
58
  6
CONTINUOUS
  0
LAYER
  2
BLUE2
  70
0
  62
5
  6
CONTINUOUS
  0
LAYER
  2
GREEN2
  70
0
  62
3
  6
CONTINUOUS
  0
LAYER
  2
CYAN2
  70
0
  62
4
  6
CONTINUOUS
  0
LAYER
  2
RED2
  70
0
  62
1
  6
CONTINUOUS
  0
LAYER
  2
MAGENTA2
  70
0
  62
6
  6
CONTINUOUS
  0
LAYER
  2
BROWN2
  70
0
  62
54
  6
CONTINUOUS
  0
LAYER
  2
BLUE3
  70
0
  62
171
  6
CONTINUOUS
  0
LAYER
  2
GREEN3
  70
0
  62
91
  6
CONTINUOUS
  0
LAYER
  2
CYAN3
  70
0
  62
131
  6
CONTINUOUS
  0
LAYER
  2
RED3
  70
0
  62
11
  6
CONTINUOUS
  0
LAYER
  2
MAGENTA3
  70
0
  62
221
  6
CONTINUOUS
  0
LAYER
  2
YELLOW3
  70
0
  62
2
  6
CONTINUOUS
  0
LAYER
  2
BLUE4
  70
0
  62
5
  6
CONTINUOUS
  0
LAYER
  2
GREEN4
  70
0
  62
3
  6
CONTINUOUS
  0
LAYER
  2
CYAN4
  70
0
  62
4
  6
CONTINUOUS
  0
LAYER
  2
RED4
  70
0
  62
1
  6
CONTINUOUS
  0
LAYER
  2
MAGENTA4
  70
0
  62
6
  6
CONTINUOUS
  0
LAYER
  2
YELLOW4
  70
0
  62
2
  6
CONTINUOUS
  0
ENDTAB
  0
ENDSEC
  0
SECTION
  2
ENTITIES
0
LINE
8
BLACK
6
CONTINUOUS
10
170.048
20
-74.113
11
170.048
21
-74.1174
0
LINE
8
BLACK
6
CONTINUOUS
10
170.048
20
-74.1174
11
170.045
21
-74.1212
0
LINE
8
BLACK
6
CONTINUOUS
10
170.045
20
-74.1212
11
170.044
21
-74.1254
0
LINE
8
BLACK
6
CONTINUOUS
10
170.044
20
-74.1254
11
170.041
21
-74.1288
0
LINE
8
BLACK
6
CONTINUOUS
10
170.041
20
-74.1288
11
170.039
21
-74.1326
0
LINE
8
BLACK
6
CONTINUOUS
10
170.039
20
-74.1326
11
170.035
21
-74.1355
0
LINE
8
BLACK
6
CONTINUOUS
10
170.035
20
-74.1355
11
170.033
21
-74.1389
0
LINE
8
BLACK
6
CONTINUOUS
10
170.033
20
-74.1389
11
170.029
21
-74.1411
0
LINE
8
BLACK
6
CONTINUOUS
10
170.029
20
-74.1411
11
170.025
21
-74.144
0
LINE
8
BLACK
6
CONTINUOUS
10
170.025
20
-74.144
11
170.021
21
-74.1455
0
LINE
8
BLACK
6
CONTINUOUS
10
170.021
20
-74.1455
11
170.017
21
-74.1477
0
LINE
8
BLACK
6
CONTINUOUS
10
170.017
20
-74.1477
11
170.013
21
-74.1485
0
LINE
8
BLACK
6
CONTINUOUS
10
170.013
20
-74.1485
11
170.009
21
-74.15
0
LINE
8
BLACK
6
CONTINUOUS
10
170.009
20
-74.15
11
169.55
21
-74.15
0
LINE
8
BLACK
6
CONTINUOUS
10
169.55
20
-74.15
11
169.55
21
-80.65
0
LINE
8
BLACK
6
CONTINUOUS
10
169.55
20
-80.65
11
170.009
21
-80.65
0
LINE
8
BLACK
6
CONTINUOUS
10
170.009
20
-80.65
11
170.013
21
-80.6515
0
LINE
8
BLACK
6
CONTINUOUS
10
170.013
20
-80.6515
11
170.017
21
-80.6523
0
LINE
8
BLACK
6
CONTINUOUS
10
170.017
20
-80.6523
11
170.021
21
-80.6545
0
LINE
8
BLACK
6
CONTINUOUS
10
170.021
20
-80.6545
11
170.025
21
-80.656
0
LINE
8
BLACK
6
CONTINUOUS
10
170.025
20
-80.656
11
170.029
21
-80.6589
0
LINE
8
BLACK
6
CONTINUOUS
10
170.029
20
-80.6589
11
170.033
21
-80.6611
0
LINE
8
BLACK
6
CONTINUOUS
10
170.033
20
-80.6611
11
170.035
21
-80.6645
0
LINE
8
BLACK
6
CONTINUOUS
10
170.035
20
-80.6645
11
170.039
21
-80.6674
0
LINE
8
BLACK
6
CONTINUOUS
10
170.039
20
-80.6674
11
170.041
21
-80.6712
0
LINE
8
BLACK
6
CONTINUOUS
10
170.041
20
-80.6712
11
170.044
21
-80.6746
0
LINE
8
BLACK
6
CONTINUOUS
10
170.044
20
-80.6746
11
170.045
21
-80.6788
0
LINE
8
BLACK
6
CONTINUOUS
10
170.045
20
-80.6788
11
170.048
21
-80.6826
0
LINE
8
BLACK
6
CONTINUOUS
10
170.048
20
-80.6826
11
170.048
21
-80.687
0
LINE
8
BLACK
6
CONTINUOUS
10
170.048
20
-80.687
11
170.05
21
-80.6912
0
LINE
8
BLACK
6
CONTINUOUS
10
170.05
20
-80.6912
11
170.05
21
-99.0044
0
LINE
8
BLACK
6
CONTINUOUS
10
170.05
20
-99.0044
11
170.049
21
-99.0087
0
LINE
8
BLACK
6
CONTINUOUS
10
170.049
20
-99.0087
11
170.049
21
-99.0087
0
LINE
8
BLACK
6
CONTINUOUS
10
170.049
20
-99.0087
11
169.989
21
-99.3507
0
LINE
8
BLACK
6
CONTINUOUS
10
169.989
20
-99.3507
11
169.989
21
-99.3507
0
LINE
8
BLACK
6
CONTINUOUS
10
169.989
20
-99.3507
11
169.986
21
-99.3601
0
LINE
8
BLACK
6
CONTINUOUS
10
169.986
20
-99.3601
11
169.983
21
-99.367
0
LINE
8
BLACK
6
CONTINUOUS
10
169.983
20
-99.367
11
169.983
21
-99.367
0
LINE
8
BLACK
6
CONTINUOUS
10
169.983
20
-99.367
11
169.809
21
-99.6678
0
LINE
8
BLACK
6
CONTINUOUS
10
169.809
20
-99.6678
11
169.809
21
-99.6678
0
LINE
8
BLACK
6
CONTINUOUS
10
169.809
20
-99.6678
11
169.798
21
-99.6811
0
LINE
8
BLACK
6
CONTINUOUS
10
169.798
20
-99.6811
11
169.532
21
-99.9043
0
LINE
8
BLACK
6
CONTINUOUS
10
169.532
20
-99.9043
11
169.532
21
-99.9043
0
LINE
8
BLACK
6
CONTINUOUS
10
169.532
20
-99.9043
11
169.517
21
-99.913
0
LINE
8
BLACK
6
CONTINUOUS
10
169.517
20
-99.913
11
169.191
21
-100.032
0
LINE
8
BLACK
6
CONTINUOUS
10
169.191
20
-100.032
11
169.184
21
-100.033
0
LINE
8
BLACK
6
CONTINUOUS
10
169.184
20
-100.033
11
169.178
21
-100.035
0
LINE
8
BLACK
6
CONTINUOUS
10
169.178
20
-100.035
11
169.007
21
-100.05
0
LINE
8
BLACK
6
CONTINUOUS
10
169.007
20
-100.05
11
169.004
21
-100.05
0
LINE
8
BLACK
6
CONTINUOUS
10
169.004
20
-100.05
11
100.996
21
-100.05
0
LINE
8
BLACK
6
CONTINUOUS
10
100.996
20
-100.05
11
100.991
21
-100.049
0
LINE
8
BLACK
6
CONTINUOUS
10
100.991
20
-100.049
11
100.991
21
-100.049
0
LINE
8
BLACK
6
CONTINUOUS
10
100.991
20
-100.049
11
100.649
21
-99.9889
0
LINE
8
BLACK
6
CONTINUOUS
10
100.649
20
-99.9889
11
100.649
21
-99.9889
0
LINE
8
BLACK
6
CONTINUOUS
10
100.649
20
-99.9889
11
100.64
21
-99.9855
0
LINE
8
BLACK
6
CONTINUOUS
10
100.64
20
-99.9855
11
100.633
21
-99.983
0
LINE
8
BLACK
6
CONTINUOUS
10
100.633
20
-99.983
11
100.633
21
-99.983
0
LINE
8
BLACK
6
CONTINUOUS
10
100.633
20
-99.983
11
100.332
21
-99.8093
0
LINE
8
BLACK
6
CONTINUOUS
10
100.332
20
-99.8093
11
100.332
21
-99.8093
0
LINE
8
BLACK
6
CONTINUOUS
10
100.332
20
-99.8093
11
100.319
21
-99.7982
0
LINE
8
BLACK
6
CONTINUOUS
10
100.319
20
-99.7982
11
100.096
21
-99.5321
0
LINE
8
BLACK
6
CONTINUOUS
10
100.096
20
-99.5321
11
100.096
21
-99.5321
0
LINE
8
BLACK
6
CONTINUOUS
10
100.096
20
-99.5321
11
100.087
21
-99.5171
0
LINE
8
BLACK
6
CONTINUOUS
10
100.087
20
-99.5171
11
99.9682
21
-99.1907
0
LINE
8
BLACK
6
CONTINUOUS
10
99.9682
20
-99.1907
11
99.9671
21
-99.1843
0
LINE
8
BLACK
6
CONTINUOUS
10
99.9671
20
-99.1843
11
99.9654
21
-99.178
0
LINE
8
BLACK
6
CONTINUOUS
10
99.9654
20
-99.178
11
99.9504
21
-99.0065
0
LINE
8
BLACK
6
CONTINUOUS
10
99.9504
20
-99.0065
11
99.95
21
-99.0044
0
LINE
8
BLACK
6
CONTINUOUS
10
99.95
20
-99.0044
11
99.95
21
-57.9956
0
LINE
8
BLACK
6
CONTINUOUS
10
99.95
20
-57.9956
11
99.9523
21
-57.9826
0
LINE
8
BLACK
6
CONTINUOUS
10
99.9523
20
-57.9826
11
100.011
21
-57.6493
0
LINE
8
BLACK
6
CONTINUOUS
10
100.011
20
-57.6493
11
100.011
21
-57.6493
0
LINE
8
BLACK
6
CONTINUOUS
10
100.011
20
-57.6493
11
100.014
21
-57.6399
0
LINE
8
BLACK
6
CONTINUOUS
10
100.014
20
-57.6399
11
100.017
21
-57.633
0
LINE
8
BLACK
6
CONTINUOUS
10
100.017
20
-57.633
11
100.017
21
-57.633
0
LINE
8
BLACK
6
CONTINUOUS
10
100.017
20
-57.633
11
100.191
21
-57.3322
0
LINE
8
BLACK
6
CONTINUOUS
10
100.191
20
-57.3322
11
100.202
21
-57.3189
0
LINE
8
BLACK
6
CONTINUOUS
10
100.202
20
-57.3189
11
100.202
21
-57.3189
0
LINE
8
BLACK
6
CONTINUOUS
10
100.202
20
-57.3189
11
100.468
21
-57.0957
0
LINE
8
BLACK
6
CONTINUOUS
10
100.468
20
-57.0957
11
100.468
21
-57.0957
0
LINE
8
BLACK
6
CONTINUOUS
10
100.468
20
-57.0957
11
100.483
21
-57.087
0
LINE
8
BLACK
6
CONTINUOUS
10
100.483
20
-57.087
11
100.809
21
-56.9682
0
LINE
8
BLACK
6
CONTINUOUS
10
100.809
20
-56.9682
11
100.816
21
-56.9671
0
LINE
8
BLACK
6
CONTINUOUS
10
100.816
20
-56.9671
11
100.822
21
-56.9654
0
LINE
8
BLACK
6
CONTINUOUS
10
100.822
20
-56.9654
11
100.993
21
-56.9504
0
LINE
8
BLACK
6
CONTINUOUS
10
100.993
20
-56.9504
11
100.996
21
-56.95
0
LINE
8
BLACK
6
CONTINUOUS
10
100.996
20
-56.95
11
169.004
21
-56.95
0
LINE
8
BLACK
6
CONTINUOUS
10
169.004
20
-56.95
11
169.009
21
-56.9508
0
LINE
8
BLACK
6
CONTINUOUS
10
169.009
20
-56.9508
11
169.351
21
-57.0111
0
LINE
8
BLACK
6
CONTINUOUS
10
169.351
20
-57.0111
11
169.351
21
-57.0111
0
LINE
8
BLACK
6
CONTINUOUS
10
169.351
20
-57.0111
11
169.36
21
-57.0145
0
LINE
8
BLACK
6
CONTINUOUS
10
169.36
20
-57.0145
11
169.367
21
-57.017
0
LINE
8
BLACK
6
CONTINUOUS
10
169.367
20
-57.017
11
169.367
21
-57.017
0
LINE
8
BLACK
6
CONTINUOUS
10
169.367
20
-57.017
11
169.668
21
-57.1907
0
LINE
8
BLACK
6
CONTINUOUS
10
169.668
20
-57.1907
11
169.681
21
-57.2018
0
LINE
8
BLACK
6
CONTINUOUS
10
169.681
20
-57.2018
11
169.681
21
-57.2018
0
LINE
8
BLACK
6
CONTINUOUS
10
169.681
20
-57.2018
11
169.904
21
-57.4679
0
LINE
8
BLACK
6
CONTINUOUS
10
169.904
20
-57.4679
11
169.904
21
-57.4679
0
LINE
8
BLACK
6
CONTINUOUS
10
169.904
20
-57.4679
11
169.913
21
-57.4829
0
LINE
8
BLACK
6
CONTINUOUS
10
169.913
20
-57.4829
11
170.032
21
-57.8093
0
LINE
8
BLACK
6
CONTINUOUS
10
170.032
20
-57.8093
11
170.033
21
-57.8157
0
LINE
8
BLACK
6
CONTINUOUS
10
170.033
20
-57.8157
11
170.035
21
-57.822
0
LINE
8
BLACK
6
CONTINUOUS
10
170.035
20
-57.822
11
170.05
21
-57.9935
0
LINE
8
BLACK
6
CONTINUOUS
10
170.05
20
-57.9935
11
170.05
21
-57.9956
0
LINE
8
BLACK
6
CONTINUOUS
10
170.05
20
-57.9956
11
170.05
21
-74.1088
0
LINE
8
BLACK
6
CONTINUOUS
10
170.05
20
-74.1088
11
170.048
21
-74.113
0
LINE
8
BLACK
6
CONTINUOUS
10
169.487
20
-80.7485
11
169.483
21
-80.7477
0
LINE
8
BLACK
6
CONTINUOUS
10
169.483
20
-80.7477
11
169.479
21
-80.7455
0
LINE
8
BLACK
6
CONTINUOUS
10
169.479
20
-80.7455
11
169.475
21
-80.744
0
LINE
8
BLACK
6
CONTINUOUS
10
169.475
20
-80.744
11
169.471
21
-80.7411
0
LINE
8
BLACK
6
CONTINUOUS
10
169.471
20
-80.7411
11
169.467
21
-80.7389
0
LINE
8
BLACK
6
CONTINUOUS
10
169.467
20
-80.7389
11
169.465
21
-80.7355
0
LINE
8
BLACK
6
CONTINUOUS
10
169.465
20
-80.7355
11
169.461
21
-80.7326
0
LINE
8
BLACK
6
CONTINUOUS
10
169.461
20
-80.7326
11
169.459
21
-80.7288
0
LINE
8
BLACK
6
CONTINUOUS
10
169.459
20
-80.7288
11
169.456
21
-80.7254
0
LINE
8
BLACK
6
CONTINUOUS
10
169.456
20
-80.7254
11
169.455
21
-80.7212
0
LINE
8
BLACK
6
CONTINUOUS
10
169.455
20
-80.7212
11
169.452
21
-80.7174
0
LINE
8
BLACK
6
CONTINUOUS
10
169.452
20
-80.7174
11
169.452
21
-80.713
0
LINE
8
BLACK
6
CONTINUOUS
10
169.452
20
-80.713
11
169.45
21
-80.7088
0
LINE
8
BLACK
6
CONTINUOUS
10
169.45
20
-80.7088
11
169.45
21
-80.6912
0
LINE
8
BLACK
6
CONTINUOUS
10
169.45
20
-80.6912
11
169.45
21
-80.6912
0
LINE
8
BLACK
6
CONTINUOUS
10
169.45
20
-80.6912
11
169.45
21
-74.0956
0
LINE
8
BLACK
6
CONTINUOUS
10
169.45
20
-74.0956
11
169.45
21
-74.0912
0
LINE
8
BLACK
6
CONTINUOUS
10
169.45
20
-74.0912
11
169.452
21
-74.087
0
LINE
8
BLACK
6
CONTINUOUS
10
169.452
20
-74.087
11
169.452
21
-74.0826
0
LINE
8
BLACK
6
CONTINUOUS
10
169.452
20
-74.0826
11
169.455
21
-74.0788
0
LINE
8
BLACK
6
CONTINUOUS
10
169.455
20
-74.0788
11
169.456
21
-74.0746
0
LINE
8
BLACK
6
CONTINUOUS
10
169.456
20
-74.0746
11
169.459
21
-74.0712
0
LINE
8
BLACK
6
CONTINUOUS
10
169.459
20
-74.0712
11
169.461
21
-74.0674
0
LINE
8
BLACK
6
CONTINUOUS
10
169.461
20
-74.0674
11
169.465
21
-74.0645
0
LINE
8
BLACK
6
CONTINUOUS
10
169.465
20
-74.0645
11
169.467
21
-74.0611
0
LINE
8
BLACK
6
CONTINUOUS
10
169.467
20
-74.0611
11
169.471
21
-74.0589
0
LINE
8
BLACK
6
CONTINUOUS
10
169.471
20
-74.0589
11
169.475
21
-74.056
0
LINE
8
BLACK
6
CONTINUOUS
10
169.475
20
-74.056
11
169.479
21
-74.0545
0
LINE
8
BLACK
6
CONTINUOUS
10
169.479
20
-74.0545
11
169.483
21
-74.0523
0
LINE
8
BLACK
6
CONTINUOUS
10
169.483
20
-74.0523
11
169.487
21
-74.0515
0
LINE
8
BLACK
6
CONTINUOUS
10
169.487
20
-74.0515
11
169.491
21
-74.05
0
LINE
8
BLACK
6
CONTINUOUS
10
169.491
20
-74.05
11
169.95
21
-74.05
0
LINE
8
BLACK
6
CONTINUOUS
10
169.95
20
-74.05
11
169.95
21
-58.0022
0
LINE
8
BLACK
6
CONTINUOUS
10
169.95
20
-58.0022
11
169.936
21
-57.8373
0
LINE
8
BLACK
6
CONTINUOUS
10
169.936
20
-57.8373
11
169.822
21
-57.5254
0
LINE
8
BLACK
6
CONTINUOUS
10
169.822
20
-57.5254
11
169.61
21
-57.2728
0
LINE
8
BLACK
6
CONTINUOUS
10
169.61
20
-57.2728
11
169.325
21
-57.108
0
LINE
8
BLACK
6
CONTINUOUS
10
169.325
20
-57.108
11
168.996
21
-57.05
0
LINE
8
BLACK
6
CONTINUOUS
10
168.996
20
-57.05
11
101.002
21
-57.05
0
LINE
8
BLACK
6
CONTINUOUS
10
101.002
20
-57.05
11
100.837
21
-57.0644
0
LINE
8
BLACK
6
CONTINUOUS
10
100.837
20
-57.0644
11
100.525
21
-57.1779
0
LINE
8
BLACK
6
CONTINUOUS
10
100.525
20
-57.1779
11
100.273
21
-57.3898
0
LINE
8
BLACK
6
CONTINUOUS
10
100.273
20
-57.3898
11
100.108
21
-57.6753
0
LINE
8
BLACK
6
CONTINUOUS
10
100.108
20
-57.6753
11
100.05
21
-58.0044
0
LINE
8
BLACK
6
CONTINUOUS
10
100.05
20
-58.0044
11
100.05
21
-98.9978
0
LINE
8
BLACK
6
CONTINUOUS
10
100.05
20
-98.9978
11
100.064
21
-99.1627
0
LINE
8
BLACK
6
CONTINUOUS
10
100.064
20
-99.1627
11
100.178
21
-99.4746
0
LINE
8
BLACK
6
CONTINUOUS
10
100.178
20
-99.4746
11
100.39
21
-99.7272
0
LINE
8
BLACK
6
CONTINUOUS
10
100.39
20
-99.7272
11
100.675
21
-99.892
0
LINE
8
BLACK
6
CONTINUOUS
10
100.675
20
-99.892
11
101.004
21
-99.95
0
LINE
8
BLACK
6
CONTINUOUS
10
101.004
20
-99.95
11
168.998
21
-99.95
0
LINE
8
BLACK
6
CONTINUOUS
10
168.998
20
-99.95
11
169.163
21
-99.9356
0
LINE
8
BLACK
6
CONTINUOUS
10
169.163
20
-99.9356
11
169.475
21
-99.8221
0
LINE
8
BLACK
6
CONTINUOUS
10
169.475
20
-99.8221
11
169.727
21
-99.6102
0
LINE
8
BLACK
6
CONTINUOUS
10
169.727
20
-99.6102
11
169.892
21
-99.3247
0
LINE
8
BLACK
6
CONTINUOUS
10
169.892
20
-99.3247
11
169.95
21
-98.9956
0
LINE
8
BLACK
6
CONTINUOUS
10
169.95
20
-98.9956
11
169.95
21
-80.75
0
LINE
8
BLACK
6
CONTINUOUS
10
169.95
20
-80.75
11
169.491
21
-80.75
0
LINE
8
BLACK
6
CONTINUOUS
10
169.491
20
-80.75
11
169.487
21
-80.7485
  0
ENDSEC
  0
EOF
