  0
SECTION
  2
HEADER
  9
$ANGBASE
  50
0.0
  9
$ANGDIR
  70
  1
  9
$MEASUREMENT
  70
0
  0
ENDSEC
  0
SECTION
  2
TABLES
  0
TABLE
  2
LTYPE
  70
4
  0
LTYPE
  5
40F
  2
CONTINUOUS
  70
0
  3
Solid line
  72
65
  73
0
  40
0.0
  0
LTYPE
  5
410
  2
DASHDOT
 70
0
  3
Dash Dot ____ _ ____ _
 72
65
 73
4
 40
2.0
 49
1.25
 49
-0.25
 49
0.25
 49
-0.25
  0
LTYPE
  5
411
  2
DASHED
 70
0
  3
Dashed __ __ __ __ __
 72
65
 73
2
 40
0.75
 49
0.5
 49
-0.25
  0
LTYPE
  5
43B
  2
DOTTED
 70
0
  3
Dotted .  .  .  .
 72
65
 73
2
 40
0.2
 49
0.0
 49
-0.2
  0
ENDTAB
  0
TABLE
  2
STYLE
  70
4
  0
STYLE
  2
KICAD
  70
0
  40
0
  41
1
  42
1
  50
0
  71
0
  3
isocp.shx
  0
STYLE
  2
KICADB
  70
0
  40
0
  41
1
  42
1
  50
0
  71
0
  3
isocp.shx
  0
STYLE
  2
KICADI
  70
0
  40
0
  41
1
  42
1
  50
15
  71
0
  3
isocp.shx
  0
STYLE
  2
KICADBI
  70
0
  40
0
  41
1
  42
1
  50
15
  71
0
  3
isocp.shx
  0
ENDTAB
  0
TABLE
  2
LAYER
  70
30
  0
LAYER
  2
BLACK
  70
0
  62
7
  6
CONTINUOUS
  0
LAYER
  2
GRAY1
  70
0
  62
251
  6
CONTINUOUS
  0
LAYER
  2
GRAY2
  70
0
  62
8
  6
CONTINUOUS
  0
LAYER
  2
GRAY3
  70
0
  62
9
  6
CONTINUOUS
  0
LAYER
  2
WHITE
  70
0
  62
7
  6
CONTINUOUS
  0
LAYER
  2
LYELLOW
  70
0
  62
51
  6
CONTINUOUS
  0
LAYER
  2
BLUE1
  70
0
  62
178
  6
CONTINUOUS
  0
LAYER
  2
GREEN1
  70
0
  62
98
  6
CONTINUOUS
  0
LAYER
  2
CYAN1
  70
0
  62
138
  6
CONTINUOUS
  0
LAYER
  2
RED1
  70
0
  62
18
  6
CONTINUOUS
  0
LAYER
  2
MAGENTA1
  70
0
  62
228
  6
CONTINUOUS
  0
LAYER
  2
BROWN1
  70
0
  62
58
  6
CONTINUOUS
  0
LAYER
  2
BLUE2
  70
0
  62
5
  6
CONTINUOUS
  0
LAYER
  2
GREEN2
  70
0
  62
3
  6
CONTINUOUS
  0
LAYER
  2
CYAN2
  70
0
  62
4
  6
CONTINUOUS
  0
LAYER
  2
RED2
  70
0
  62
1
  6
CONTINUOUS
  0
LAYER
  2
MAGENTA2
  70
0
  62
6
  6
CONTINUOUS
  0
LAYER
  2
BROWN2
  70
0
  62
54
  6
CONTINUOUS
  0
LAYER
  2
BLUE3
  70
0
  62
171
  6
CONTINUOUS
  0
LAYER
  2
GREEN3
  70
0
  62
91
  6
CONTINUOUS
  0
LAYER
  2
CYAN3
  70
0
  62
131
  6
CONTINUOUS
  0
LAYER
  2
RED3
  70
0
  62
11
  6
CONTINUOUS
  0
LAYER
  2
MAGENTA3
  70
0
  62
221
  6
CONTINUOUS
  0
LAYER
  2
YELLOW3
  70
0
  62
2
  6
CONTINUOUS
  0
LAYER
  2
BLUE4
  70
0
  62
5
  6
CONTINUOUS
  0
LAYER
  2
GREEN4
  70
0
  62
3
  6
CONTINUOUS
  0
LAYER
  2
CYAN4
  70
0
  62
4
  6
CONTINUOUS
  0
LAYER
  2
RED4
  70
0
  62
1
  6
CONTINUOUS
  0
LAYER
  2
MAGENTA4
  70
0
  62
6
  6
CONTINUOUS
  0
LAYER
  2
YELLOW4
  70
0
  62
2
  6
CONTINUOUS
  0
ENDTAB
  0
ENDSEC
  0
SECTION
  2
ENTITIES
0
LINE
8
BLACK
6
CONTINUOUS
10
125.7
20
-99.7
11
124.4
21
-99.7
0
LINE
8
BLACK
6
CONTINUOUS
10
124.4
20
-99.7
11
124.4
21
-97.9
0
LINE
8
BLACK
6
CONTINUOUS
10
124.4
20
-97.9
11
125.7
21
-97.9
0
LINE
8
BLACK
6
CONTINUOUS
10
125.7
20
-97.9
11
125.7
21
-99.7
0
LINE
8
BLACK
6
CONTINUOUS
10
114
20
-99.7
11
112.7
21
-99.7
0
LINE
8
BLACK
6
CONTINUOUS
10
112.7
20
-99.7
11
112.7
21
-97.9
0
LINE
8
BLACK
6
CONTINUOUS
10
112.7
20
-97.9
11
114
21
-97.9
0
LINE
8
BLACK
6
CONTINUOUS
10
114
20
-97.9
11
114
21
-99.7
0
LINE
8
BLACK
6
CONTINUOUS
10
147.553
20
-96.2982
11
147.661
21
-96.3889
0
LINE
8
BLACK
6
CONTINUOUS
10
147.661
20
-96.3889
11
147.732
21
-96.5111
0
LINE
8
BLACK
6
CONTINUOUS
10
147.732
20
-96.5111
11
147.75
21
-96.615
0
LINE
8
BLACK
6
CONTINUOUS
10
147.75
20
-96.615
11
147.75
21
-98.385
0
LINE
8
BLACK
6
CONTINUOUS
10
147.75
20
-98.385
11
147.732
21
-98.4889
0
LINE
8
BLACK
6
CONTINUOUS
10
147.732
20
-98.4889
11
147.661
21
-98.6111
0
LINE
8
BLACK
6
CONTINUOUS
10
147.661
20
-98.6111
11
147.553
21
-98.7018
0
LINE
8
BLACK
6
CONTINUOUS
10
147.553
20
-98.7018
11
147.421
21
-98.75
0
LINE
8
BLACK
6
CONTINUOUS
10
147.421
20
-98.75
11
147.279
21
-98.75
0
LINE
8
BLACK
6
CONTINUOUS
10
147.279
20
-98.75
11
147.147
21
-98.7018
0
LINE
8
BLACK
6
CONTINUOUS
10
147.147
20
-98.7018
11
147.039
21
-98.6111
0
LINE
8
BLACK
6
CONTINUOUS
10
147.039
20
-98.6111
11
146.968
21
-98.4889
0
LINE
8
BLACK
6
CONTINUOUS
10
146.968
20
-98.4889
11
146.95
21
-98.385
0
LINE
8
BLACK
6
CONTINUOUS
10
146.95
20
-98.385
11
146.95
21
-96.615
0
LINE
8
BLACK
6
CONTINUOUS
10
146.95
20
-96.615
11
146.968
21
-96.5111
0
LINE
8
BLACK
6
CONTINUOUS
10
146.968
20
-96.5111
11
147.039
21
-96.3889
0
LINE
8
BLACK
6
CONTINUOUS
10
147.039
20
-96.3889
11
147.147
21
-96.2982
0
LINE
8
BLACK
6
CONTINUOUS
10
147.147
20
-96.2982
11
147.279
21
-96.25
0
LINE
8
BLACK
6
CONTINUOUS
10
147.279
20
-96.25
11
147.421
21
-96.25
0
LINE
8
BLACK
6
CONTINUOUS
10
147.421
20
-96.25
11
147.553
21
-96.2982
0
LINE
8
BLACK
6
CONTINUOUS
10
159.253
20
-96.2982
11
159.361
21
-96.3889
0
LINE
8
BLACK
6
CONTINUOUS
10
159.361
20
-96.3889
11
159.432
21
-96.5111
0
LINE
8
BLACK
6
CONTINUOUS
10
159.432
20
-96.5111
11
159.45
21
-96.615
0
LINE
8
BLACK
6
CONTINUOUS
10
159.45
20
-96.615
11
159.45
21
-98.385
0
LINE
8
BLACK
6
CONTINUOUS
10
159.45
20
-98.385
11
159.432
21
-98.4889
0
LINE
8
BLACK
6
CONTINUOUS
10
159.432
20
-98.4889
11
159.361
21
-98.6111
0
LINE
8
BLACK
6
CONTINUOUS
10
159.361
20
-98.6111
11
159.253
21
-98.7018
0
LINE
8
BLACK
6
CONTINUOUS
10
159.253
20
-98.7018
11
159.121
21
-98.75
0
LINE
8
BLACK
6
CONTINUOUS
10
159.121
20
-98.75
11
158.979
21
-98.75
0
LINE
8
BLACK
6
CONTINUOUS
10
158.979
20
-98.75
11
158.847
21
-98.7018
0
LINE
8
BLACK
6
CONTINUOUS
10
158.847
20
-98.7018
11
158.739
21
-98.6111
0
LINE
8
BLACK
6
CONTINUOUS
10
158.739
20
-98.6111
11
158.668
21
-98.4889
0
LINE
8
BLACK
6
CONTINUOUS
10
158.668
20
-98.4889
11
158.65
21
-98.385
0
LINE
8
BLACK
6
CONTINUOUS
10
158.65
20
-98.385
11
158.65
21
-96.615
0
LINE
8
BLACK
6
CONTINUOUS
10
158.65
20
-96.615
11
158.668
21
-96.5111
0
LINE
8
BLACK
6
CONTINUOUS
10
158.668
20
-96.5111
11
158.739
21
-96.3889
0
LINE
8
BLACK
6
CONTINUOUS
10
158.739
20
-96.3889
11
158.847
21
-96.2982
0
LINE
8
BLACK
6
CONTINUOUS
10
158.847
20
-96.2982
11
158.979
21
-96.25
0
LINE
8
BLACK
6
CONTINUOUS
10
158.979
20
-96.25
11
159.121
21
-96.25
0
LINE
8
BLACK
6
CONTINUOUS
10
159.121
20
-96.25
11
159.253
21
-96.2982
0
LINE
8
BLACK
6
CONTINUOUS
10
157.953
20
-96.2982
11
158.061
21
-96.3889
0
LINE
8
BLACK
6
CONTINUOUS
10
158.061
20
-96.3889
11
158.132
21
-96.5111
0
LINE
8
BLACK
6
CONTINUOUS
10
158.132
20
-96.5111
11
158.15
21
-96.615
0
LINE
8
BLACK
6
CONTINUOUS
10
158.15
20
-96.615
11
158.15
21
-98.385
0
LINE
8
BLACK
6
CONTINUOUS
10
158.15
20
-98.385
11
158.132
21
-98.4889
0
LINE
8
BLACK
6
CONTINUOUS
10
158.132
20
-98.4889
11
158.061
21
-98.6111
0
LINE
8
BLACK
6
CONTINUOUS
10
158.061
20
-98.6111
11
157.953
21
-98.7018
0
LINE
8
BLACK
6
CONTINUOUS
10
157.953
20
-98.7018
11
157.821
21
-98.75
0
LINE
8
BLACK
6
CONTINUOUS
10
157.821
20
-98.75
11
157.679
21
-98.75
0
LINE
8
BLACK
6
CONTINUOUS
10
157.679
20
-98.75
11
157.547
21
-98.7018
0
LINE
8
BLACK
6
CONTINUOUS
10
157.547
20
-98.7018
11
157.439
21
-98.6111
0
LINE
8
BLACK
6
CONTINUOUS
10
157.439
20
-98.6111
11
157.368
21
-98.4889
0
LINE
8
BLACK
6
CONTINUOUS
10
157.368
20
-98.4889
11
157.35
21
-98.385
0
LINE
8
BLACK
6
CONTINUOUS
10
157.35
20
-98.385
11
157.35
21
-96.615
0
LINE
8
BLACK
6
CONTINUOUS
10
157.35
20
-96.615
11
157.368
21
-96.5111
0
LINE
8
BLACK
6
CONTINUOUS
10
157.368
20
-96.5111
11
157.439
21
-96.3889
0
LINE
8
BLACK
6
CONTINUOUS
10
157.439
20
-96.3889
11
157.547
21
-96.2982
0
LINE
8
BLACK
6
CONTINUOUS
10
157.547
20
-96.2982
11
157.679
21
-96.25
0
LINE
8
BLACK
6
CONTINUOUS
10
157.679
20
-96.25
11
157.821
21
-96.25
0
LINE
8
BLACK
6
CONTINUOUS
10
157.821
20
-96.25
11
157.953
21
-96.2982
0
LINE
8
BLACK
6
CONTINUOUS
10
156.653
20
-96.2982
11
156.761
21
-96.3889
0
LINE
8
BLACK
6
CONTINUOUS
10
156.761
20
-96.3889
11
156.832
21
-96.5111
0
LINE
8
BLACK
6
CONTINUOUS
10
156.832
20
-96.5111
11
156.85
21
-96.615
0
LINE
8
BLACK
6
CONTINUOUS
10
156.85
20
-96.615
11
156.85
21
-98.385
0
LINE
8
BLACK
6
CONTINUOUS
10
156.85
20
-98.385
11
156.832
21
-98.4889
0
LINE
8
BLACK
6
CONTINUOUS
10
156.832
20
-98.4889
11
156.761
21
-98.6111
0
LINE
8
BLACK
6
CONTINUOUS
10
156.761
20
-98.6111
11
156.653
21
-98.7018
0
LINE
8
BLACK
6
CONTINUOUS
10
156.653
20
-98.7018
11
156.521
21
-98.75
0
LINE
8
BLACK
6
CONTINUOUS
10
156.521
20
-98.75
11
156.379
21
-98.75
0
LINE
8
BLACK
6
CONTINUOUS
10
156.379
20
-98.75
11
156.247
21
-98.7018
0
LINE
8
BLACK
6
CONTINUOUS
10
156.247
20
-98.7018
11
156.139
21
-98.6111
0
LINE
8
BLACK
6
CONTINUOUS
10
156.139
20
-98.6111
11
156.068
21
-98.4889
0
LINE
8
BLACK
6
CONTINUOUS
10
156.068
20
-98.4889
11
156.05
21
-98.385
0
LINE
8
BLACK
6
CONTINUOUS
10
156.05
20
-98.385
11
156.05
21
-96.615
0
LINE
8
BLACK
6
CONTINUOUS
10
156.05
20
-96.615
11
156.068
21
-96.5111
0
LINE
8
BLACK
6
CONTINUOUS
10
156.068
20
-96.5111
11
156.139
21
-96.3889
0
LINE
8
BLACK
6
CONTINUOUS
10
156.139
20
-96.3889
11
156.247
21
-96.2982
0
LINE
8
BLACK
6
CONTINUOUS
10
156.247
20
-96.2982
11
156.379
21
-96.25
0
LINE
8
BLACK
6
CONTINUOUS
10
156.379
20
-96.25
11
156.521
21
-96.25
0
LINE
8
BLACK
6
CONTINUOUS
10
156.521
20
-96.25
11
156.653
21
-96.2982
0
LINE
8
BLACK
6
CONTINUOUS
10
155.353
20
-96.2982
11
155.461
21
-96.3889
0
LINE
8
BLACK
6
CONTINUOUS
10
155.461
20
-96.3889
11
155.532
21
-96.5111
0
LINE
8
BLACK
6
CONTINUOUS
10
155.532
20
-96.5111
11
155.55
21
-96.615
0
LINE
8
BLACK
6
CONTINUOUS
10
155.55
20
-96.615
11
155.55
21
-98.385
0
LINE
8
BLACK
6
CONTINUOUS
10
155.55
20
-98.385
11
155.532
21
-98.4889
0
LINE
8
BLACK
6
CONTINUOUS
10
155.532
20
-98.4889
11
155.461
21
-98.6111
0
LINE
8
BLACK
6
CONTINUOUS
10
155.461
20
-98.6111
11
155.353
21
-98.7018
0
LINE
8
BLACK
6
CONTINUOUS
10
155.353
20
-98.7018
11
155.221
21
-98.75
0
LINE
8
BLACK
6
CONTINUOUS
10
155.221
20
-98.75
11
155.079
21
-98.75
0
LINE
8
BLACK
6
CONTINUOUS
10
155.079
20
-98.75
11
154.947
21
-98.7018
0
LINE
8
BLACK
6
CONTINUOUS
10
154.947
20
-98.7018
11
154.839
21
-98.6111
0
LINE
8
BLACK
6
CONTINUOUS
10
154.839
20
-98.6111
11
154.768
21
-98.4889
0
LINE
8
BLACK
6
CONTINUOUS
10
154.768
20
-98.4889
11
154.75
21
-98.385
0
LINE
8
BLACK
6
CONTINUOUS
10
154.75
20
-98.385
11
154.75
21
-96.615
0
LINE
8
BLACK
6
CONTINUOUS
10
154.75
20
-96.615
11
154.768
21
-96.5111
0
LINE
8
BLACK
6
CONTINUOUS
10
154.768
20
-96.5111
11
154.839
21
-96.3889
0
LINE
8
BLACK
6
CONTINUOUS
10
154.839
20
-96.3889
11
154.947
21
-96.2982
0
LINE
8
BLACK
6
CONTINUOUS
10
154.947
20
-96.2982
11
155.079
21
-96.25
0
LINE
8
BLACK
6
CONTINUOUS
10
155.079
20
-96.25
11
155.221
21
-96.25
0
LINE
8
BLACK
6
CONTINUOUS
10
155.221
20
-96.25
11
155.353
21
-96.2982
0
LINE
8
BLACK
6
CONTINUOUS
10
154.053
20
-96.2982
11
154.161
21
-96.3889
0
LINE
8
BLACK
6
CONTINUOUS
10
154.161
20
-96.3889
11
154.232
21
-96.5111
0
LINE
8
BLACK
6
CONTINUOUS
10
154.232
20
-96.5111
11
154.25
21
-96.615
0
LINE
8
BLACK
6
CONTINUOUS
10
154.25
20
-96.615
11
154.25
21
-98.385
0
LINE
8
BLACK
6
CONTINUOUS
10
154.25
20
-98.385
11
154.232
21
-98.4889
0
LINE
8
BLACK
6
CONTINUOUS
10
154.232
20
-98.4889
11
154.161
21
-98.6111
0
LINE
8
BLACK
6
CONTINUOUS
10
154.161
20
-98.6111
11
154.053
21
-98.7018
0
LINE
8
BLACK
6
CONTINUOUS
10
154.053
20
-98.7018
11
153.921
21
-98.75
0
LINE
8
BLACK
6
CONTINUOUS
10
153.921
20
-98.75
11
153.779
21
-98.75
0
LINE
8
BLACK
6
CONTINUOUS
10
153.779
20
-98.75
11
153.647
21
-98.7018
0
LINE
8
BLACK
6
CONTINUOUS
10
153.647
20
-98.7018
11
153.539
21
-98.6111
0
LINE
8
BLACK
6
CONTINUOUS
10
153.539
20
-98.6111
11
153.468
21
-98.4889
0
LINE
8
BLACK
6
CONTINUOUS
10
153.468
20
-98.4889
11
153.45
21
-98.385
0
LINE
8
BLACK
6
CONTINUOUS
10
153.45
20
-98.385
11
153.45
21
-96.615
0
LINE
8
BLACK
6
CONTINUOUS
10
153.45
20
-96.615
11
153.468
21
-96.5111
0
LINE
8
BLACK
6
CONTINUOUS
10
153.468
20
-96.5111
11
153.539
21
-96.3889
0
LINE
8
BLACK
6
CONTINUOUS
10
153.539
20
-96.3889
11
153.647
21
-96.2982
0
LINE
8
BLACK
6
CONTINUOUS
10
153.647
20
-96.2982
11
153.779
21
-96.25
0
LINE
8
BLACK
6
CONTINUOUS
10
153.779
20
-96.25
11
153.921
21
-96.25
0
LINE
8
BLACK
6
CONTINUOUS
10
153.921
20
-96.25
11
154.053
21
-96.2982
0
LINE
8
BLACK
6
CONTINUOUS
10
152.753
20
-96.2982
11
152.861
21
-96.3889
0
LINE
8
BLACK
6
CONTINUOUS
10
152.861
20
-96.3889
11
152.932
21
-96.5111
0
LINE
8
BLACK
6
CONTINUOUS
10
152.932
20
-96.5111
11
152.95
21
-96.615
0
LINE
8
BLACK
6
CONTINUOUS
10
152.95
20
-96.615
11
152.95
21
-98.385
0
LINE
8
BLACK
6
CONTINUOUS
10
152.95
20
-98.385
11
152.932
21
-98.4889
0
LINE
8
BLACK
6
CONTINUOUS
10
152.932
20
-98.4889
11
152.861
21
-98.6111
0
LINE
8
BLACK
6
CONTINUOUS
10
152.861
20
-98.6111
11
152.753
21
-98.7018
0
LINE
8
BLACK
6
CONTINUOUS
10
152.753
20
-98.7018
11
152.621
21
-98.75
0
LINE
8
BLACK
6
CONTINUOUS
10
152.621
20
-98.75
11
152.479
21
-98.75
0
LINE
8
BLACK
6
CONTINUOUS
10
152.479
20
-98.75
11
152.347
21
-98.7018
0
LINE
8
BLACK
6
CONTINUOUS
10
152.347
20
-98.7018
11
152.239
21
-98.6111
0
LINE
8
BLACK
6
CONTINUOUS
10
152.239
20
-98.6111
11
152.168
21
-98.4889
0
LINE
8
BLACK
6
CONTINUOUS
10
152.168
20
-98.4889
11
152.15
21
-98.385
0
LINE
8
BLACK
6
CONTINUOUS
10
152.15
20
-98.385
11
152.15
21
-96.615
0
LINE
8
BLACK
6
CONTINUOUS
10
152.15
20
-96.615
11
152.168
21
-96.5111
0
LINE
8
BLACK
6
CONTINUOUS
10
152.168
20
-96.5111
11
152.239
21
-96.3889
0
LINE
8
BLACK
6
CONTINUOUS
10
152.239
20
-96.3889
11
152.347
21
-96.2982
0
LINE
8
BLACK
6
CONTINUOUS
10
152.347
20
-96.2982
11
152.479
21
-96.25
0
LINE
8
BLACK
6
CONTINUOUS
10
152.479
20
-96.25
11
152.621
21
-96.25
0
LINE
8
BLACK
6
CONTINUOUS
10
152.621
20
-96.25
11
152.753
21
-96.2982
0
LINE
8
BLACK
6
CONTINUOUS
10
151.453
20
-96.2982
11
151.561
21
-96.3889
0
LINE
8
BLACK
6
CONTINUOUS
10
151.561
20
-96.3889
11
151.632
21
-96.5111
0
LINE
8
BLACK
6
CONTINUOUS
10
151.632
20
-96.5111
11
151.65
21
-96.615
0
LINE
8
BLACK
6
CONTINUOUS
10
151.65
20
-96.615
11
151.65
21
-98.385
0
LINE
8
BLACK
6
CONTINUOUS
10
151.65
20
-98.385
11
151.632
21
-98.4889
0
LINE
8
BLACK
6
CONTINUOUS
10
151.632
20
-98.4889
11
151.561
21
-98.6111
0
LINE
8
BLACK
6
CONTINUOUS
10
151.561
20
-98.6111
11
151.453
21
-98.7018
0
LINE
8
BLACK
6
CONTINUOUS
10
151.453
20
-98.7018
11
151.321
21
-98.75
0
LINE
8
BLACK
6
CONTINUOUS
10
151.321
20
-98.75
11
151.179
21
-98.75
0
LINE
8
BLACK
6
CONTINUOUS
10
151.179
20
-98.75
11
151.047
21
-98.7018
0
LINE
8
BLACK
6
CONTINUOUS
10
151.047
20
-98.7018
11
150.939
21
-98.6111
0
LINE
8
BLACK
6
CONTINUOUS
10
150.939
20
-98.6111
11
150.868
21
-98.4889
0
LINE
8
BLACK
6
CONTINUOUS
10
150.868
20
-98.4889
11
150.85
21
-98.385
0
LINE
8
BLACK
6
CONTINUOUS
10
150.85
20
-98.385
11
150.85
21
-96.615
0
LINE
8
BLACK
6
CONTINUOUS
10
150.85
20
-96.615
11
150.868
21
-96.5111
0
LINE
8
BLACK
6
CONTINUOUS
10
150.868
20
-96.5111
11
150.939
21
-96.3889
0
LINE
8
BLACK
6
CONTINUOUS
10
150.939
20
-96.3889
11
151.047
21
-96.2982
0
LINE
8
BLACK
6
CONTINUOUS
10
151.047
20
-96.2982
11
151.179
21
-96.25
0
LINE
8
BLACK
6
CONTINUOUS
10
151.179
20
-96.25
11
151.321
21
-96.25
0
LINE
8
BLACK
6
CONTINUOUS
10
151.321
20
-96.25
11
151.453
21
-96.2982
0
LINE
8
BLACK
6
CONTINUOUS
10
150.153
20
-96.2982
11
150.261
21
-96.3889
0
LINE
8
BLACK
6
CONTINUOUS
10
150.261
20
-96.3889
11
150.332
21
-96.5111
0
LINE
8
BLACK
6
CONTINUOUS
10
150.332
20
-96.5111
11
150.35
21
-96.615
0
LINE
8
BLACK
6
CONTINUOUS
10
150.35
20
-96.615
11
150.35
21
-98.385
0
LINE
8
BLACK
6
CONTINUOUS
10
150.35
20
-98.385
11
150.332
21
-98.4889
0
LINE
8
BLACK
6
CONTINUOUS
10
150.332
20
-98.4889
11
150.261
21
-98.6111
0
LINE
8
BLACK
6
CONTINUOUS
10
150.261
20
-98.6111
11
150.153
21
-98.7018
0
LINE
8
BLACK
6
CONTINUOUS
10
150.153
20
-98.7018
11
150.021
21
-98.75
0
LINE
8
BLACK
6
CONTINUOUS
10
150.021
20
-98.75
11
149.879
21
-98.75
0
LINE
8
BLACK
6
CONTINUOUS
10
149.879
20
-98.75
11
149.747
21
-98.7018
0
LINE
8
BLACK
6
CONTINUOUS
10
149.747
20
-98.7018
11
149.639
21
-98.6111
0
LINE
8
BLACK
6
CONTINUOUS
10
149.639
20
-98.6111
11
149.568
21
-98.4889
0
LINE
8
BLACK
6
CONTINUOUS
10
149.568
20
-98.4889
11
149.55
21
-98.385
0
LINE
8
BLACK
6
CONTINUOUS
10
149.55
20
-98.385
11
149.55
21
-96.615
0
LINE
8
BLACK
6
CONTINUOUS
10
149.55
20
-96.615
11
149.568
21
-96.5111
0
LINE
8
BLACK
6
CONTINUOUS
10
149.568
20
-96.5111
11
149.639
21
-96.3889
0
LINE
8
BLACK
6
CONTINUOUS
10
149.639
20
-96.3889
11
149.747
21
-96.2982
0
LINE
8
BLACK
6
CONTINUOUS
10
149.747
20
-96.2982
11
149.879
21
-96.25
0
LINE
8
BLACK
6
CONTINUOUS
10
149.879
20
-96.25
11
150.021
21
-96.25
0
LINE
8
BLACK
6
CONTINUOUS
10
150.021
20
-96.25
11
150.153
21
-96.2982
0
LINE
8
BLACK
6
CONTINUOUS
10
148.853
20
-96.2982
11
148.961
21
-96.3889
0
LINE
8
BLACK
6
CONTINUOUS
10
148.961
20
-96.3889
11
149.032
21
-96.5111
0
LINE
8
BLACK
6
CONTINUOUS
10
149.032
20
-96.5111
11
149.05
21
-96.615
0
LINE
8
BLACK
6
CONTINUOUS
10
149.05
20
-96.615
11
149.05
21
-98.385
0
LINE
8
BLACK
6
CONTINUOUS
10
149.05
20
-98.385
11
149.032
21
-98.4889
0
LINE
8
BLACK
6
CONTINUOUS
10
149.032
20
-98.4889
11
148.961
21
-98.6111
0
LINE
8
BLACK
6
CONTINUOUS
10
148.961
20
-98.6111
11
148.853
21
-98.7018
0
LINE
8
BLACK
6
CONTINUOUS
10
148.853
20
-98.7018
11
148.721
21
-98.75
0
LINE
8
BLACK
6
CONTINUOUS
10
148.721
20
-98.75
11
148.579
21
-98.75
0
LINE
8
BLACK
6
CONTINUOUS
10
148.579
20
-98.75
11
148.447
21
-98.7018
0
LINE
8
BLACK
6
CONTINUOUS
10
148.447
20
-98.7018
11
148.339
21
-98.6111
0
LINE
8
BLACK
6
CONTINUOUS
10
148.339
20
-98.6111
11
148.268
21
-98.4889
0
LINE
8
BLACK
6
CONTINUOUS
10
148.268
20
-98.4889
11
148.25
21
-98.385
0
LINE
8
BLACK
6
CONTINUOUS
10
148.25
20
-98.385
11
148.25
21
-96.615
0
LINE
8
BLACK
6
CONTINUOUS
10
148.25
20
-96.615
11
148.268
21
-96.5111
0
LINE
8
BLACK
6
CONTINUOUS
10
148.268
20
-96.5111
11
148.339
21
-96.3889
0
LINE
8
BLACK
6
CONTINUOUS
10
148.339
20
-96.3889
11
148.447
21
-96.2982
0
LINE
8
BLACK
6
CONTINUOUS
10
148.447
20
-96.2982
11
148.579
21
-96.25
0
LINE
8
BLACK
6
CONTINUOUS
10
148.579
20
-96.25
11
148.721
21
-96.25
0
LINE
8
BLACK
6
CONTINUOUS
10
148.721
20
-96.25
11
148.853
21
-96.2982
0
LINE
8
BLACK
6
CONTINUOUS
10
134.553
20
-96.2982
11
134.661
21
-96.3889
0
LINE
8
BLACK
6
CONTINUOUS
10
134.661
20
-96.3889
11
134.732
21
-96.5111
0
LINE
8
BLACK
6
CONTINUOUS
10
134.732
20
-96.5111
11
134.75
21
-96.615
0
LINE
8
BLACK
6
CONTINUOUS
10
134.75
20
-96.615
11
134.75
21
-98.385
0
LINE
8
BLACK
6
CONTINUOUS
10
134.75
20
-98.385
11
134.732
21
-98.4889
0
LINE
8
BLACK
6
CONTINUOUS
10
134.732
20
-98.4889
11
134.661
21
-98.6111
0
LINE
8
BLACK
6
CONTINUOUS
10
134.661
20
-98.6111
11
134.553
21
-98.7018
0
LINE
8
BLACK
6
CONTINUOUS
10
134.553
20
-98.7018
11
134.421
21
-98.75
0
LINE
8
BLACK
6
CONTINUOUS
10
134.421
20
-98.75
11
134.279
21
-98.75
0
LINE
8
BLACK
6
CONTINUOUS
10
134.279
20
-98.75
11
134.147
21
-98.7018
0
LINE
8
BLACK
6
CONTINUOUS
10
134.147
20
-98.7018
11
134.039
21
-98.6111
0
LINE
8
BLACK
6
CONTINUOUS
10
134.039
20
-98.6111
11
133.968
21
-98.4889
0
LINE
8
BLACK
6
CONTINUOUS
10
133.968
20
-98.4889
11
133.95
21
-98.385
0
LINE
8
BLACK
6
CONTINUOUS
10
133.95
20
-98.385
11
133.95
21
-96.615
0
LINE
8
BLACK
6
CONTINUOUS
10
133.95
20
-96.615
11
133.968
21
-96.5111
0
LINE
8
BLACK
6
CONTINUOUS
10
133.968
20
-96.5111
11
134.039
21
-96.3889
0
LINE
8
BLACK
6
CONTINUOUS
10
134.039
20
-96.3889
11
134.147
21
-96.2982
0
LINE
8
BLACK
6
CONTINUOUS
10
134.147
20
-96.2982
11
134.279
21
-96.25
0
LINE
8
BLACK
6
CONTINUOUS
10
134.279
20
-96.25
11
134.421
21
-96.25
0
LINE
8
BLACK
6
CONTINUOUS
10
134.421
20
-96.25
11
134.553
21
-96.2982
0
LINE
8
BLACK
6
CONTINUOUS
10
135.853
20
-96.2982
11
135.961
21
-96.3889
0
LINE
8
BLACK
6
CONTINUOUS
10
135.961
20
-96.3889
11
136.032
21
-96.5111
0
LINE
8
BLACK
6
CONTINUOUS
10
136.032
20
-96.5111
11
136.05
21
-96.615
0
LINE
8
BLACK
6
CONTINUOUS
10
136.05
20
-96.615
11
136.05
21
-98.385
0
LINE
8
BLACK
6
CONTINUOUS
10
136.05
20
-98.385
11
136.032
21
-98.4889
0
LINE
8
BLACK
6
CONTINUOUS
10
136.032
20
-98.4889
11
135.961
21
-98.6111
0
LINE
8
BLACK
6
CONTINUOUS
10
135.961
20
-98.6111
11
135.853
21
-98.7018
0
LINE
8
BLACK
6
CONTINUOUS
10
135.853
20
-98.7018
11
135.721
21
-98.75
0
LINE
8
BLACK
6
CONTINUOUS
10
135.721
20
-98.75
11
135.579
21
-98.75
0
LINE
8
BLACK
6
CONTINUOUS
10
135.579
20
-98.75
11
135.447
21
-98.7018
0
LINE
8
BLACK
6
CONTINUOUS
10
135.447
20
-98.7018
11
135.339
21
-98.6111
0
LINE
8
BLACK
6
CONTINUOUS
10
135.339
20
-98.6111
11
135.268
21
-98.4889
0
LINE
8
BLACK
6
CONTINUOUS
10
135.268
20
-98.4889
11
135.25
21
-98.385
0
LINE
8
BLACK
6
CONTINUOUS
10
135.25
20
-98.385
11
135.25
21
-96.615
0
LINE
8
BLACK
6
CONTINUOUS
10
135.25
20
-96.615
11
135.268
21
-96.5111
0
LINE
8
BLACK
6
CONTINUOUS
10
135.268
20
-96.5111
11
135.339
21
-96.3889
0
LINE
8
BLACK
6
CONTINUOUS
10
135.339
20
-96.3889
11
135.447
21
-96.2982
0
LINE
8
BLACK
6
CONTINUOUS
10
135.447
20
-96.2982
11
135.579
21
-96.25
0
LINE
8
BLACK
6
CONTINUOUS
10
135.579
20
-96.25
11
135.721
21
-96.25
0
LINE
8
BLACK
6
CONTINUOUS
10
135.721
20
-96.25
11
135.853
21
-96.2982
0
LINE
8
BLACK
6
CONTINUOUS
10
137.153
20
-96.2982
11
137.261
21
-96.3889
0
LINE
8
BLACK
6
CONTINUOUS
10
137.261
20
-96.3889
11
137.332
21
-96.5111
0
LINE
8
BLACK
6
CONTINUOUS
10
137.332
20
-96.5111
11
137.35
21
-96.615
0
LINE
8
BLACK
6
CONTINUOUS
10
137.35
20
-96.615
11
137.35
21
-98.385
0
LINE
8
BLACK
6
CONTINUOUS
10
137.35
20
-98.385
11
137.332
21
-98.4889
0
LINE
8
BLACK
6
CONTINUOUS
10
137.332
20
-98.4889
11
137.261
21
-98.6111
0
LINE
8
BLACK
6
CONTINUOUS
10
137.261
20
-98.6111
11
137.153
21
-98.7018
0
LINE
8
BLACK
6
CONTINUOUS
10
137.153
20
-98.7018
11
137.021
21
-98.75
0
LINE
8
BLACK
6
CONTINUOUS
10
137.021
20
-98.75
11
136.879
21
-98.75
0
LINE
8
BLACK
6
CONTINUOUS
10
136.879
20
-98.75
11
136.747
21
-98.7018
0
LINE
8
BLACK
6
CONTINUOUS
10
136.747
20
-98.7018
11
136.639
21
-98.6111
0
LINE
8
BLACK
6
CONTINUOUS
10
136.639
20
-98.6111
11
136.568
21
-98.4889
0
LINE
8
BLACK
6
CONTINUOUS
10
136.568
20
-98.4889
11
136.55
21
-98.385
0
LINE
8
BLACK
6
CONTINUOUS
10
136.55
20
-98.385
11
136.55
21
-96.615
0
LINE
8
BLACK
6
CONTINUOUS
10
136.55
20
-96.615
11
136.568
21
-96.5111
0
LINE
8
BLACK
6
CONTINUOUS
10
136.568
20
-96.5111
11
136.639
21
-96.3889
0
LINE
8
BLACK
6
CONTINUOUS
10
136.639
20
-96.3889
11
136.747
21
-96.2982
0
LINE
8
BLACK
6
CONTINUOUS
10
136.747
20
-96.2982
11
136.879
21
-96.25
0
LINE
8
BLACK
6
CONTINUOUS
10
136.879
20
-96.25
11
137.021
21
-96.25
0
LINE
8
BLACK
6
CONTINUOUS
10
137.021
20
-96.25
11
137.153
21
-96.2982
0
LINE
8
BLACK
6
CONTINUOUS
10
138.453
20
-96.2982
11
138.561
21
-96.3889
0
LINE
8
BLACK
6
CONTINUOUS
10
138.561
20
-96.3889
11
138.632
21
-96.5111
0
LINE
8
BLACK
6
CONTINUOUS
10
138.632
20
-96.5111
11
138.65
21
-96.615
0
LINE
8
BLACK
6
CONTINUOUS
10
138.65
20
-96.615
11
138.65
21
-98.385
0
LINE
8
BLACK
6
CONTINUOUS
10
138.65
20
-98.385
11
138.632
21
-98.4889
0
LINE
8
BLACK
6
CONTINUOUS
10
138.632
20
-98.4889
11
138.561
21
-98.6111
0
LINE
8
BLACK
6
CONTINUOUS
10
138.561
20
-98.6111
11
138.453
21
-98.7018
0
LINE
8
BLACK
6
CONTINUOUS
10
138.453
20
-98.7018
11
138.321
21
-98.75
0
LINE
8
BLACK
6
CONTINUOUS
10
138.321
20
-98.75
11
138.179
21
-98.75
0
LINE
8
BLACK
6
CONTINUOUS
10
138.179
20
-98.75
11
138.047
21
-98.7018
0
LINE
8
BLACK
6
CONTINUOUS
10
138.047
20
-98.7018
11
137.939
21
-98.6111
0
LINE
8
BLACK
6
CONTINUOUS
10
137.939
20
-98.6111
11
137.868
21
-98.4889
0
LINE
8
BLACK
6
CONTINUOUS
10
137.868
20
-98.4889
11
137.85
21
-98.385
0
LINE
8
BLACK
6
CONTINUOUS
10
137.85
20
-98.385
11
137.85
21
-96.615
0
LINE
8
BLACK
6
CONTINUOUS
10
137.85
20
-96.615
11
137.868
21
-96.5111
0
LINE
8
BLACK
6
CONTINUOUS
10
137.868
20
-96.5111
11
137.939
21
-96.3889
0
LINE
8
BLACK
6
CONTINUOUS
10
137.939
20
-96.3889
11
138.047
21
-96.2982
0
LINE
8
BLACK
6
CONTINUOUS
10
138.047
20
-96.2982
11
138.179
21
-96.25
0
LINE
8
BLACK
6
CONTINUOUS
10
138.179
20
-96.25
11
138.321
21
-96.25
0
LINE
8
BLACK
6
CONTINUOUS
10
138.321
20
-96.25
11
138.453
21
-96.2982
0
LINE
8
BLACK
6
CONTINUOUS
10
139.753
20
-96.2982
11
139.861
21
-96.3889
0
LINE
8
BLACK
6
CONTINUOUS
10
139.861
20
-96.3889
11
139.932
21
-96.5111
0
LINE
8
BLACK
6
CONTINUOUS
10
139.932
20
-96.5111
11
139.95
21
-96.615
0
LINE
8
BLACK
6
CONTINUOUS
10
139.95
20
-96.615
11
139.95
21
-98.385
0
LINE
8
BLACK
6
CONTINUOUS
10
139.95
20
-98.385
11
139.932
21
-98.4889
0
LINE
8
BLACK
6
CONTINUOUS
10
139.932
20
-98.4889
11
139.861
21
-98.6111
0
LINE
8
BLACK
6
CONTINUOUS
10
139.861
20
-98.6111
11
139.753
21
-98.7018
0
LINE
8
BLACK
6
CONTINUOUS
10
139.753
20
-98.7018
11
139.621
21
-98.75
0
LINE
8
BLACK
6
CONTINUOUS
10
139.621
20
-98.75
11
139.479
21
-98.75
0
LINE
8
BLACK
6
CONTINUOUS
10
139.479
20
-98.75
11
139.347
21
-98.7018
0
LINE
8
BLACK
6
CONTINUOUS
10
139.347
20
-98.7018
11
139.239
21
-98.6111
0
LINE
8
BLACK
6
CONTINUOUS
10
139.239
20
-98.6111
11
139.168
21
-98.4889
0
LINE
8
BLACK
6
CONTINUOUS
10
139.168
20
-98.4889
11
139.15
21
-98.385
0
LINE
8
BLACK
6
CONTINUOUS
10
139.15
20
-98.385
11
139.15
21
-96.615
0
LINE
8
BLACK
6
CONTINUOUS
10
139.15
20
-96.615
11
139.168
21
-96.5111
0
LINE
8
BLACK
6
CONTINUOUS
10
139.168
20
-96.5111
11
139.239
21
-96.3889
0
LINE
8
BLACK
6
CONTINUOUS
10
139.239
20
-96.3889
11
139.347
21
-96.2982
0
LINE
8
BLACK
6
CONTINUOUS
10
139.347
20
-96.2982
11
139.479
21
-96.25
0
LINE
8
BLACK
6
CONTINUOUS
10
139.479
20
-96.25
11
139.621
21
-96.25
0
LINE
8
BLACK
6
CONTINUOUS
10
139.621
20
-96.25
11
139.753
21
-96.2982
0
LINE
8
BLACK
6
CONTINUOUS
10
141.053
20
-96.2982
11
141.161
21
-96.3889
0
LINE
8
BLACK
6
CONTINUOUS
10
141.161
20
-96.3889
11
141.232
21
-96.5111
0
LINE
8
BLACK
6
CONTINUOUS
10
141.232
20
-96.5111
11
141.25
21
-96.615
0
LINE
8
BLACK
6
CONTINUOUS
10
141.25
20
-96.615
11
141.25
21
-98.385
0
LINE
8
BLACK
6
CONTINUOUS
10
141.25
20
-98.385
11
141.232
21
-98.4889
0
LINE
8
BLACK
6
CONTINUOUS
10
141.232
20
-98.4889
11
141.161
21
-98.6111
0
LINE
8
BLACK
6
CONTINUOUS
10
141.161
20
-98.6111
11
141.053
21
-98.7018
0
LINE
8
BLACK
6
CONTINUOUS
10
141.053
20
-98.7018
11
140.921
21
-98.75
0
LINE
8
BLACK
6
CONTINUOUS
10
140.921
20
-98.75
11
140.779
21
-98.75
0
LINE
8
BLACK
6
CONTINUOUS
10
140.779
20
-98.75
11
140.647
21
-98.7018
0
LINE
8
BLACK
6
CONTINUOUS
10
140.647
20
-98.7018
11
140.539
21
-98.6111
0
LINE
8
BLACK
6
CONTINUOUS
10
140.539
20
-98.6111
11
140.468
21
-98.4889
0
LINE
8
BLACK
6
CONTINUOUS
10
140.468
20
-98.4889
11
140.45
21
-98.385
0
LINE
8
BLACK
6
CONTINUOUS
10
140.45
20
-98.385
11
140.45
21
-96.615
0
LINE
8
BLACK
6
CONTINUOUS
10
140.45
20
-96.615
11
140.468
21
-96.5111
0
LINE
8
BLACK
6
CONTINUOUS
10
140.468
20
-96.5111
11
140.539
21
-96.3889
0
LINE
8
BLACK
6
CONTINUOUS
10
140.539
20
-96.3889
11
140.647
21
-96.2982
0
LINE
8
BLACK
6
CONTINUOUS
10
140.647
20
-96.2982
11
140.779
21
-96.25
0
LINE
8
BLACK
6
CONTINUOUS
10
140.779
20
-96.25
11
140.921
21
-96.25
0
LINE
8
BLACK
6
CONTINUOUS
10
140.921
20
-96.25
11
141.053
21
-96.2982
0
LINE
8
BLACK
6
CONTINUOUS
10
142.353
20
-96.2982
11
142.461
21
-96.3889
0
LINE
8
BLACK
6
CONTINUOUS
10
142.461
20
-96.3889
11
142.532
21
-96.5111
0
LINE
8
BLACK
6
CONTINUOUS
10
142.532
20
-96.5111
11
142.55
21
-96.615
0
LINE
8
BLACK
6
CONTINUOUS
10
142.55
20
-96.615
11
142.55
21
-98.385
0
LINE
8
BLACK
6
CONTINUOUS
10
142.55
20
-98.385
11
142.532
21
-98.4889
0
LINE
8
BLACK
6
CONTINUOUS
10
142.532
20
-98.4889
11
142.461
21
-98.6111
0
LINE
8
BLACK
6
CONTINUOUS
10
142.461
20
-98.6111
11
142.353
21
-98.7018
0
LINE
8
BLACK
6
CONTINUOUS
10
142.353
20
-98.7018
11
142.221
21
-98.75
0
LINE
8
BLACK
6
CONTINUOUS
10
142.221
20
-98.75
11
142.079
21
-98.75
0
LINE
8
BLACK
6
CONTINUOUS
10
142.079
20
-98.75
11
141.947
21
-98.7018
0
LINE
8
BLACK
6
CONTINUOUS
10
141.947
20
-98.7018
11
141.839
21
-98.6111
0
LINE
8
BLACK
6
CONTINUOUS
10
141.839
20
-98.6111
11
141.768
21
-98.4889
0
LINE
8
BLACK
6
CONTINUOUS
10
141.768
20
-98.4889
11
141.75
21
-98.385
0
LINE
8
BLACK
6
CONTINUOUS
10
141.75
20
-98.385
11
141.75
21
-96.615
0
LINE
8
BLACK
6
CONTINUOUS
10
141.75
20
-96.615
11
141.768
21
-96.5111
0
LINE
8
BLACK
6
CONTINUOUS
10
141.768
20
-96.5111
11
141.839
21
-96.3889
0
LINE
8
BLACK
6
CONTINUOUS
10
141.839
20
-96.3889
11
141.947
21
-96.2982
0
LINE
8
BLACK
6
CONTINUOUS
10
141.947
20
-96.2982
11
142.079
21
-96.25
0
LINE
8
BLACK
6
CONTINUOUS
10
142.079
20
-96.25
11
142.221
21
-96.25
0
LINE
8
BLACK
6
CONTINUOUS
10
142.221
20
-96.25
11
142.353
21
-96.2982
0
LINE
8
BLACK
6
CONTINUOUS
10
143.653
20
-96.2982
11
143.761
21
-96.3889
0
LINE
8
BLACK
6
CONTINUOUS
10
143.761
20
-96.3889
11
143.832
21
-96.5111
0
LINE
8
BLACK
6
CONTINUOUS
10
143.832
20
-96.5111
11
143.85
21
-96.615
0
LINE
8
BLACK
6
CONTINUOUS
10
143.85
20
-96.615
11
143.85
21
-98.385
0
LINE
8
BLACK
6
CONTINUOUS
10
143.85
20
-98.385
11
143.832
21
-98.4889
0
LINE
8
BLACK
6
CONTINUOUS
10
143.832
20
-98.4889
11
143.761
21
-98.6111
0
LINE
8
BLACK
6
CONTINUOUS
10
143.761
20
-98.6111
11
143.653
21
-98.7018
0
LINE
8
BLACK
6
CONTINUOUS
10
143.653
20
-98.7018
11
143.521
21
-98.75
0
LINE
8
BLACK
6
CONTINUOUS
10
143.521
20
-98.75
11
143.379
21
-98.75
0
LINE
8
BLACK
6
CONTINUOUS
10
143.379
20
-98.75
11
143.247
21
-98.7018
0
LINE
8
BLACK
6
CONTINUOUS
10
143.247
20
-98.7018
11
143.139
21
-98.6111
0
LINE
8
BLACK
6
CONTINUOUS
10
143.139
20
-98.6111
11
143.068
21
-98.4889
0
LINE
8
BLACK
6
CONTINUOUS
10
143.068
20
-98.4889
11
143.05
21
-98.385
0
LINE
8
BLACK
6
CONTINUOUS
10
143.05
20
-98.385
11
143.05
21
-96.615
0
LINE
8
BLACK
6
CONTINUOUS
10
143.05
20
-96.615
11
143.068
21
-96.5111
0
LINE
8
BLACK
6
CONTINUOUS
10
143.068
20
-96.5111
11
143.139
21
-96.3889
0
LINE
8
BLACK
6
CONTINUOUS
10
143.139
20
-96.3889
11
143.247
21
-96.2982
0
LINE
8
BLACK
6
CONTINUOUS
10
143.247
20
-96.2982
11
143.379
21
-96.25
0
LINE
8
BLACK
6
CONTINUOUS
10
143.379
20
-96.25
11
143.521
21
-96.25
0
LINE
8
BLACK
6
CONTINUOUS
10
143.521
20
-96.25
11
143.653
21
-96.2982
0
LINE
8
BLACK
6
CONTINUOUS
10
144.953
20
-96.2982
11
145.061
21
-96.3889
0
LINE
8
BLACK
6
CONTINUOUS
10
145.061
20
-96.3889
11
145.132
21
-96.5111
0
LINE
8
BLACK
6
CONTINUOUS
10
145.132
20
-96.5111
11
145.15
21
-96.615
0
LINE
8
BLACK
6
CONTINUOUS
10
145.15
20
-96.615
11
145.15
21
-98.385
0
LINE
8
BLACK
6
CONTINUOUS
10
145.15
20
-98.385
11
145.132
21
-98.4889
0
LINE
8
BLACK
6
CONTINUOUS
10
145.132
20
-98.4889
11
145.061
21
-98.6111
0
LINE
8
BLACK
6
CONTINUOUS
10
145.061
20
-98.6111
11
144.953
21
-98.7018
0
LINE
8
BLACK
6
CONTINUOUS
10
144.953
20
-98.7018
11
144.821
21
-98.75
0
LINE
8
BLACK
6
CONTINUOUS
10
144.821
20
-98.75
11
144.679
21
-98.75
0
LINE
8
BLACK
6
CONTINUOUS
10
144.679
20
-98.75
11
144.547
21
-98.7018
0
LINE
8
BLACK
6
CONTINUOUS
10
144.547
20
-98.7018
11
144.439
21
-98.6111
0
LINE
8
BLACK
6
CONTINUOUS
10
144.439
20
-98.6111
11
144.368
21
-98.4889
0
LINE
8
BLACK
6
CONTINUOUS
10
144.368
20
-98.4889
11
144.35
21
-98.385
0
LINE
8
BLACK
6
CONTINUOUS
10
144.35
20
-98.385
11
144.35
21
-96.615
0
LINE
8
BLACK
6
CONTINUOUS
10
144.35
20
-96.615
11
144.368
21
-96.5111
0
LINE
8
BLACK
6
CONTINUOUS
10
144.368
20
-96.5111
11
144.439
21
-96.3889
0
LINE
8
BLACK
6
CONTINUOUS
10
144.439
20
-96.3889
11
144.547
21
-96.2982
0
LINE
8
BLACK
6
CONTINUOUS
10
144.547
20
-96.2982
11
144.679
21
-96.25
0
LINE
8
BLACK
6
CONTINUOUS
10
144.679
20
-96.25
11
144.821
21
-96.25
0
LINE
8
BLACK
6
CONTINUOUS
10
144.821
20
-96.25
11
144.953
21
-96.2982
0
LINE
8
BLACK
6
CONTINUOUS
10
146.253
20
-96.2982
11
146.361
21
-96.3889
0
LINE
8
BLACK
6
CONTINUOUS
10
146.361
20
-96.3889
11
146.432
21
-96.5111
0
LINE
8
BLACK
6
CONTINUOUS
10
146.432
20
-96.5111
11
146.45
21
-96.615
0
LINE
8
BLACK
6
CONTINUOUS
10
146.45
20
-96.615
11
146.45
21
-98.385
0
LINE
8
BLACK
6
CONTINUOUS
10
146.45
20
-98.385
11
146.432
21
-98.4889
0
LINE
8
BLACK
6
CONTINUOUS
10
146.432
20
-98.4889
11
146.361
21
-98.6111
0
LINE
8
BLACK
6
CONTINUOUS
10
146.361
20
-98.6111
11
146.253
21
-98.7018
0
LINE
8
BLACK
6
CONTINUOUS
10
146.253
20
-98.7018
11
146.121
21
-98.75
0
LINE
8
BLACK
6
CONTINUOUS
10
146.121
20
-98.75
11
145.979
21
-98.75
0
LINE
8
BLACK
6
CONTINUOUS
10
145.979
20
-98.75
11
145.847
21
-98.7018
0
LINE
8
BLACK
6
CONTINUOUS
10
145.847
20
-98.7018
11
145.739
21
-98.6111
0
LINE
8
BLACK
6
CONTINUOUS
10
145.739
20
-98.6111
11
145.668
21
-98.4889
0
LINE
8
BLACK
6
CONTINUOUS
10
145.668
20
-98.4889
11
145.65
21
-98.385
0
LINE
8
BLACK
6
CONTINUOUS
10
145.65
20
-98.385
11
145.65
21
-96.615
0
LINE
8
BLACK
6
CONTINUOUS
10
145.65
20
-96.615
11
145.668
21
-96.5111
0
LINE
8
BLACK
6
CONTINUOUS
10
145.668
20
-96.5111
11
145.739
21
-96.3889
0
LINE
8
BLACK
6
CONTINUOUS
10
145.739
20
-96.3889
11
145.847
21
-96.2982
0
LINE
8
BLACK
6
CONTINUOUS
10
145.847
20
-96.2982
11
145.979
21
-96.25
0
LINE
8
BLACK
6
CONTINUOUS
10
145.979
20
-96.25
11
146.121
21
-96.25
0
LINE
8
BLACK
6
CONTINUOUS
10
146.121
20
-96.25
11
146.253
21
-96.2982
0
LINE
8
BLACK
6
CONTINUOUS
10
131.989
20
-95.7183
11
132.111
21
-95.7889
0
LINE
8
BLACK
6
CONTINUOUS
10
132.111
20
-95.7889
11
132.202
21
-95.8969
0
LINE
8
BLACK
6
CONTINUOUS
10
132.202
20
-95.8969
11
132.25
21
-96.0295
0
LINE
8
BLACK
6
CONTINUOUS
10
132.25
20
-96.0295
11
132.25
21
-96.1705
0
LINE
8
BLACK
6
CONTINUOUS
10
132.25
20
-96.1705
11
132.202
21
-96.3031
0
LINE
8
BLACK
6
CONTINUOUS
10
132.202
20
-96.3031
11
132.111
21
-96.4111
0
LINE
8
BLACK
6
CONTINUOUS
10
132.111
20
-96.4111
11
131.989
21
-96.4817
0
LINE
8
BLACK
6
CONTINUOUS
10
131.989
20
-96.4817
11
131.885
21
-96.5
0
LINE
8
BLACK
6
CONTINUOUS
10
131.885
20
-96.5
11
130.115
21
-96.5
0
LINE
8
BLACK
6
CONTINUOUS
10
130.115
20
-96.5
11
130.011
21
-96.4817
0
LINE
8
BLACK
6
CONTINUOUS
10
130.011
20
-96.4817
11
129.889
21
-96.4111
0
LINE
8
BLACK
6
CONTINUOUS
10
129.889
20
-96.4111
11
129.798
21
-96.3031
0
LINE
8
BLACK
6
CONTINUOUS
10
129.798
20
-96.3031
11
129.75
21
-96.1705
0
LINE
8
BLACK
6
CONTINUOUS
10
129.75
20
-96.1705
11
129.75
21
-96.0295
0
LINE
8
BLACK
6
CONTINUOUS
10
129.75
20
-96.0295
11
129.798
21
-95.8969
0
LINE
8
BLACK
6
CONTINUOUS
10
129.798
20
-95.8969
11
129.889
21
-95.7889
0
LINE
8
BLACK
6
CONTINUOUS
10
129.889
20
-95.7889
11
130.011
21
-95.7183
0
LINE
8
BLACK
6
CONTINUOUS
10
130.011
20
-95.7183
11
130.115
21
-95.7
0
LINE
8
BLACK
6
CONTINUOUS
10
130.115
20
-95.7
11
131.885
21
-95.7
0
LINE
8
BLACK
6
CONTINUOUS
10
131.885
20
-95.7
11
131.989
21
-95.7183
0
LINE
8
BLACK
6
CONTINUOUS
10
162.989
20
-95.7183
11
163.111
21
-95.7889
0
LINE
8
BLACK
6
CONTINUOUS
10
163.111
20
-95.7889
11
163.202
21
-95.8969
0
LINE
8
BLACK
6
CONTINUOUS
10
163.202
20
-95.8969
11
163.25
21
-96.0295
0
LINE
8
BLACK
6
CONTINUOUS
10
163.25
20
-96.0295
11
163.25
21
-96.1705
0
LINE
8
BLACK
6
CONTINUOUS
10
163.25
20
-96.1705
11
163.202
21
-96.3031
0
LINE
8
BLACK
6
CONTINUOUS
10
163.202
20
-96.3031
11
163.111
21
-96.4111
0
LINE
8
BLACK
6
CONTINUOUS
10
163.111
20
-96.4111
11
162.989
21
-96.4817
0
LINE
8
BLACK
6
CONTINUOUS
10
162.989
20
-96.4817
11
162.885
21
-96.5
0
LINE
8
BLACK
6
CONTINUOUS
10
162.885
20
-96.5
11
161.115
21
-96.5
0
LINE
8
BLACK
6
CONTINUOUS
10
161.115
20
-96.5
11
161.011
21
-96.4817
0
LINE
8
BLACK
6
CONTINUOUS
10
161.011
20
-96.4817
11
160.889
21
-96.4111
0
LINE
8
BLACK
6
CONTINUOUS
10
160.889
20
-96.4111
11
160.798
21
-96.3031
0
LINE
8
BLACK
6
CONTINUOUS
10
160.798
20
-96.3031
11
160.75
21
-96.1705
0
LINE
8
BLACK
6
CONTINUOUS
10
160.75
20
-96.1705
11
160.75
21
-96.0295
0
LINE
8
BLACK
6
CONTINUOUS
10
160.75
20
-96.0295
11
160.798
21
-95.8969
0
LINE
8
BLACK
6
CONTINUOUS
10
160.798
20
-95.8969
11
160.889
21
-95.7889
0
LINE
8
BLACK
6
CONTINUOUS
10
160.889
20
-95.7889
11
161.011
21
-95.7183
0
LINE
8
BLACK
6
CONTINUOUS
10
161.011
20
-95.7183
11
161.115
21
-95.7
0
LINE
8
BLACK
6
CONTINUOUS
10
161.115
20
-95.7
11
162.885
21
-95.7
0
LINE
8
BLACK
6
CONTINUOUS
10
162.885
20
-95.7
11
162.989
21
-95.7183
0
LINE
8
BLACK
6
CONTINUOUS
10
162.989
20
-94.4183
11
163.111
21
-94.4889
0
LINE
8
BLACK
6
CONTINUOUS
10
163.111
20
-94.4889
11
163.202
21
-94.5969
0
LINE
8
BLACK
6
CONTINUOUS
10
163.202
20
-94.5969
11
163.25
21
-94.7295
0
LINE
8
BLACK
6
CONTINUOUS
10
163.25
20
-94.7295
11
163.25
21
-94.8705
0
LINE
8
BLACK
6
CONTINUOUS
10
163.25
20
-94.8705
11
163.202
21
-95.0031
0
LINE
8
BLACK
6
CONTINUOUS
10
163.202
20
-95.0031
11
163.111
21
-95.1111
0
LINE
8
BLACK
6
CONTINUOUS
10
163.111
20
-95.1111
11
162.989
21
-95.1817
0
LINE
8
BLACK
6
CONTINUOUS
10
162.989
20
-95.1817
11
162.885
21
-95.2
0
LINE
8
BLACK
6
CONTINUOUS
10
162.885
20
-95.2
11
161.115
21
-95.2
0
LINE
8
BLACK
6
CONTINUOUS
10
161.115
20
-95.2
11
161.011
21
-95.1817
0
LINE
8
BLACK
6
CONTINUOUS
10
161.011
20
-95.1817
11
160.889
21
-95.1111
0
LINE
8
BLACK
6
CONTINUOUS
10
160.889
20
-95.1111
11
160.798
21
-95.0031
0
LINE
8
BLACK
6
CONTINUOUS
10
160.798
20
-95.0031
11
160.75
21
-94.8705
0
LINE
8
BLACK
6
CONTINUOUS
10
160.75
20
-94.8705
11
160.75
21
-94.7295
0
LINE
8
BLACK
6
CONTINUOUS
10
160.75
20
-94.7295
11
160.798
21
-94.5969
0
LINE
8
BLACK
6
CONTINUOUS
10
160.798
20
-94.5969
11
160.889
21
-94.4889
0
LINE
8
BLACK
6
CONTINUOUS
10
160.889
20
-94.4889
11
161.011
21
-94.4183
0
LINE
8
BLACK
6
CONTINUOUS
10
161.011
20
-94.4183
11
161.115
21
-94.4
0
LINE
8
BLACK
6
CONTINUOUS
10
161.115
20
-94.4
11
162.885
21
-94.4
0
LINE
8
BLACK
6
CONTINUOUS
10
162.885
20
-94.4
11
162.989
21
-94.4183
0
LINE
8
BLACK
6
CONTINUOUS
10
131.989
20
-94.4183
11
132.111
21
-94.4889
0
LINE
8
BLACK
6
CONTINUOUS
10
132.111
20
-94.4889
11
132.202
21
-94.5969
0
LINE
8
BLACK
6
CONTINUOUS
10
132.202
20
-94.5969
11
132.25
21
-94.7295
0
LINE
8
BLACK
6
CONTINUOUS
10
132.25
20
-94.7295
11
132.25
21
-94.8705
0
LINE
8
BLACK
6
CONTINUOUS
10
132.25
20
-94.8705
11
132.202
21
-95.0031
0
LINE
8
BLACK
6
CONTINUOUS
10
132.202
20
-95.0031
11
132.111
21
-95.1111
0
LINE
8
BLACK
6
CONTINUOUS
10
132.111
20
-95.1111
11
131.989
21
-95.1817
0
LINE
8
BLACK
6
CONTINUOUS
10
131.989
20
-95.1817
11
131.885
21
-95.2
0
LINE
8
BLACK
6
CONTINUOUS
10
131.885
20
-95.2
11
130.115
21
-95.2
0
LINE
8
BLACK
6
CONTINUOUS
10
130.115
20
-95.2
11
130.011
21
-95.1817
0
LINE
8
BLACK
6
CONTINUOUS
10
130.011
20
-95.1817
11
129.889
21
-95.1111
0
LINE
8
BLACK
6
CONTINUOUS
10
129.889
20
-95.1111
11
129.798
21
-95.0031
0
LINE
8
BLACK
6
CONTINUOUS
10
129.798
20
-95.0031
11
129.75
21
-94.8705
0
LINE
8
BLACK
6
CONTINUOUS
10
129.75
20
-94.8705
11
129.75
21
-94.7295
0
LINE
8
BLACK
6
CONTINUOUS
10
129.75
20
-94.7295
11
129.798
21
-94.5969
0
LINE
8
BLACK
6
CONTINUOUS
10
129.798
20
-94.5969
11
129.889
21
-94.4889
0
LINE
8
BLACK
6
CONTINUOUS
10
129.889
20
-94.4889
11
130.011
21
-94.4183
0
LINE
8
BLACK
6
CONTINUOUS
10
130.011
20
-94.4183
11
130.115
21
-94.4
0
LINE
8
BLACK
6
CONTINUOUS
10
130.115
20
-94.4
11
131.885
21
-94.4
0
LINE
8
BLACK
6
CONTINUOUS
10
131.885
20
-94.4
11
131.989
21
-94.4183
0
LINE
8
BLACK
6
CONTINUOUS
10
139.3
20
-94.6
11
137.3
21
-94.6
0
LINE
8
BLACK
6
CONTINUOUS
10
137.3
20
-94.6
11
137.3
21
-91.6
0
LINE
8
BLACK
6
CONTINUOUS
10
137.3
20
-91.6
11
139.3
21
-91.6
0
LINE
8
BLACK
6
CONTINUOUS
10
139.3
20
-91.6
11
139.3
21
-94.6
0
LINE
8
BLACK
6
CONTINUOUS
10
152.5
20
-94.6
11
150.5
21
-94.6
0
LINE
8
BLACK
6
CONTINUOUS
10
150.5
20
-94.6
11
150.5
21
-91.6
0
LINE
8
BLACK
6
CONTINUOUS
10
150.5
20
-91.6
11
152.5
21
-91.6
0
LINE
8
BLACK
6
CONTINUOUS
10
152.5
20
-91.6
11
152.5
21
-94.6
0
LINE
8
BLACK
6
CONTINUOUS
10
155.7
20
-93.1
11
154.2
21
-94.6
0
LINE
8
BLACK
6
CONTINUOUS
10
154.2
20
-94.6
11
153.7
21
-94.6
0
LINE
8
BLACK
6
CONTINUOUS
10
153.7
20
-94.6
11
153.7
21
-91.6
0
LINE
8
BLACK
6
CONTINUOUS
10
153.7
20
-91.6
11
155.7
21
-91.6
0
LINE
8
BLACK
6
CONTINUOUS
10
155.7
20
-91.6
11
155.7
21
-93.1
0
LINE
8
BLACK
6
CONTINUOUS
10
149.1
20
-94.6
11
147.1
21
-94.6
0
LINE
8
BLACK
6
CONTINUOUS
10
147.1
20
-94.6
11
147.1
21
-91.6
0
LINE
8
BLACK
6
CONTINUOUS
10
147.1
20
-91.6
11
149.1
21
-91.6
0
LINE
8
BLACK
6
CONTINUOUS
10
149.1
20
-91.6
11
149.1
21
-94.6
0
LINE
8
BLACK
6
CONTINUOUS
10
145.9
20
-94.6
11
143.9
21
-94.6
0
LINE
8
BLACK
6
CONTINUOUS
10
143.9
20
-94.6
11
143.9
21
-91.6
0
LINE
8
BLACK
6
CONTINUOUS
10
143.9
20
-91.6
11
145.9
21
-91.6
0
LINE
8
BLACK
6
CONTINUOUS
10
145.9
20
-91.6
11
145.9
21
-94.6
0
LINE
8
BLACK
6
CONTINUOUS
10
142.5
20
-94.6
11
140.5
21
-94.6
0
LINE
8
BLACK
6
CONTINUOUS
10
140.5
20
-94.6
11
140.5
21
-91.6
0
LINE
8
BLACK
6
CONTINUOUS
10
140.5
20
-91.6
11
142.5
21
-91.6
0
LINE
8
BLACK
6
CONTINUOUS
10
142.5
20
-91.6
11
142.5
21
-94.6
0
LINE
8
BLACK
6
CONTINUOUS
10
162.989
20
-93.1183
11
163.111
21
-93.1889
0
LINE
8
BLACK
6
CONTINUOUS
10
163.111
20
-93.1889
11
163.202
21
-93.2969
0
LINE
8
BLACK
6
CONTINUOUS
10
163.202
20
-93.2969
11
163.25
21
-93.4295
0
LINE
8
BLACK
6
CONTINUOUS
10
163.25
20
-93.4295
11
163.25
21
-93.5705
0
LINE
8
BLACK
6
CONTINUOUS
10
163.25
20
-93.5705
11
163.202
21
-93.7031
0
LINE
8
BLACK
6
CONTINUOUS
10
163.202
20
-93.7031
11
163.111
21
-93.8111
0
LINE
8
BLACK
6
CONTINUOUS
10
163.111
20
-93.8111
11
162.989
21
-93.8817
0
LINE
8
BLACK
6
CONTINUOUS
10
162.989
20
-93.8817
11
162.885
21
-93.9
0
LINE
8
BLACK
6
CONTINUOUS
10
162.885
20
-93.9
11
161.115
21
-93.9
0
LINE
8
BLACK
6
CONTINUOUS
10
161.115
20
-93.9
11
161.011
21
-93.8817
0
LINE
8
BLACK
6
CONTINUOUS
10
161.011
20
-93.8817
11
160.889
21
-93.8111
0
LINE
8
BLACK
6
CONTINUOUS
10
160.889
20
-93.8111
11
160.798
21
-93.7031
0
LINE
8
BLACK
6
CONTINUOUS
10
160.798
20
-93.7031
11
160.75
21
-93.5705
0
LINE
8
BLACK
6
CONTINUOUS
10
160.75
20
-93.5705
11
160.75
21
-93.4295
0
LINE
8
BLACK
6
CONTINUOUS
10
160.75
20
-93.4295
11
160.798
21
-93.2969
0
LINE
8
BLACK
6
CONTINUOUS
10
160.798
20
-93.2969
11
160.889
21
-93.1889
0
LINE
8
BLACK
6
CONTINUOUS
10
160.889
20
-93.1889
11
161.011
21
-93.1183
0
LINE
8
BLACK
6
CONTINUOUS
10
161.011
20
-93.1183
11
161.115
21
-93.1
0
LINE
8
BLACK
6
CONTINUOUS
10
161.115
20
-93.1
11
162.885
21
-93.1
0
LINE
8
BLACK
6
CONTINUOUS
10
162.885
20
-93.1
11
162.989
21
-93.1183
0
LINE
8
BLACK
6
CONTINUOUS
10
131.989
20
-93.1183
11
132.111
21
-93.1889
0
LINE
8
BLACK
6
CONTINUOUS
10
132.111
20
-93.1889
11
132.202
21
-93.2969
0
LINE
8
BLACK
6
CONTINUOUS
10
132.202
20
-93.2969
11
132.25
21
-93.4295
0
LINE
8
BLACK
6
CONTINUOUS
10
132.25
20
-93.4295
11
132.25
21
-93.5705
0
LINE
8
BLACK
6
CONTINUOUS
10
132.25
20
-93.5705
11
132.202
21
-93.7031
0
LINE
8
BLACK
6
CONTINUOUS
10
132.202
20
-93.7031
11
132.111
21
-93.8111
0
LINE
8
BLACK
6
CONTINUOUS
10
132.111
20
-93.8111
11
131.989
21
-93.8817
0
LINE
8
BLACK
6
CONTINUOUS
10
131.989
20
-93.8817
11
131.885
21
-93.9
0
LINE
8
BLACK
6
CONTINUOUS
10
131.885
20
-93.9
11
130.115
21
-93.9
0
LINE
8
BLACK
6
CONTINUOUS
10
130.115
20
-93.9
11
130.011
21
-93.8817
0
LINE
8
BLACK
6
CONTINUOUS
10
130.011
20
-93.8817
11
129.889
21
-93.8111
0
LINE
8
BLACK
6
CONTINUOUS
10
129.889
20
-93.8111
11
129.798
21
-93.7031
0
LINE
8
BLACK
6
CONTINUOUS
10
129.798
20
-93.7031
11
129.75
21
-93.5705
0
LINE
8
BLACK
6
CONTINUOUS
10
129.75
20
-93.5705
11
129.75
21
-93.4295
0
LINE
8
BLACK
6
CONTINUOUS
10
129.75
20
-93.4295
11
129.798
21
-93.2969
0
LINE
8
BLACK
6
CONTINUOUS
10
129.798
20
-93.2969
11
129.889
21
-93.1889
0
LINE
8
BLACK
6
CONTINUOUS
10
129.889
20
-93.1889
11
130.011
21
-93.1183
0
LINE
8
BLACK
6
CONTINUOUS
10
130.011
20
-93.1183
11
130.115
21
-93.1
0
LINE
8
BLACK
6
CONTINUOUS
10
130.115
20
-93.1
11
131.885
21
-93.1
0
LINE
8
BLACK
6
CONTINUOUS
10
131.885
20
-93.1
11
131.989
21
-93.1183
0
LINE
8
BLACK
6
CONTINUOUS
10
110.9
20
-93.25
11
110.1
21
-93.25
0
LINE
8
BLACK
6
CONTINUOUS
10
110.1
20
-93.25
11
110.1
21
-92.35
0
LINE
8
BLACK
6
CONTINUOUS
10
110.1
20
-92.35
11
110.9
21
-92.35
0
LINE
8
BLACK
6
CONTINUOUS
10
110.9
20
-92.35
11
110.9
21
-93.25
0
LINE
8
BLACK
6
CONTINUOUS
10
103.331
20
-91.8882
11
103.397
21
-91.9262
0
LINE
8
BLACK
6
CONTINUOUS
10
103.397
20
-91.9262
11
103.446
21
-91.9844
0
LINE
8
BLACK
6
CONTINUOUS
10
103.446
20
-91.9844
11
103.475
21
-92.0938
0
LINE
8
BLACK
6
CONTINUOUS
10
103.475
20
-92.0938
11
103.475
21
-92.5312
0
LINE
8
BLACK
6
CONTINUOUS
10
103.475
20
-92.5312
11
103.462
21
-92.6061
0
LINE
8
BLACK
6
CONTINUOUS
10
103.462
20
-92.6061
11
103.424
21
-92.6719
0
LINE
8
BLACK
6
CONTINUOUS
10
103.424
20
-92.6719
11
103.366
21
-92.7207
0
LINE
8
BLACK
6
CONTINUOUS
10
103.366
20
-92.7207
11
103.256
21
-92.75
0
LINE
8
BLACK
6
CONTINUOUS
10
103.256
20
-92.75
11
102.744
21
-92.75
0
LINE
8
BLACK
6
CONTINUOUS
10
102.744
20
-92.75
11
102.669
21
-92.7368
0
LINE
8
BLACK
6
CONTINUOUS
10
102.669
20
-92.7368
11
102.603
21
-92.6988
0
LINE
8
BLACK
6
CONTINUOUS
10
102.603
20
-92.6988
11
102.554
21
-92.6406
0
LINE
8
BLACK
6
CONTINUOUS
10
102.554
20
-92.6406
11
102.525
21
-92.5312
0
LINE
8
BLACK
6
CONTINUOUS
10
102.525
20
-92.5312
11
102.525
21
-92.0938
0
LINE
8
BLACK
6
CONTINUOUS
10
102.525
20
-92.0938
11
102.538
21
-92.0189
0
LINE
8
BLACK
6
CONTINUOUS
10
102.538
20
-92.0189
11
102.576
21
-91.9531
0
LINE
8
BLACK
6
CONTINUOUS
10
102.576
20
-91.9531
11
102.634
21
-91.9043
0
LINE
8
BLACK
6
CONTINUOUS
10
102.634
20
-91.9043
11
102.744
21
-91.875
0
LINE
8
BLACK
6
CONTINUOUS
10
102.744
20
-91.875
11
103.256
21
-91.875
0
LINE
8
BLACK
6
CONTINUOUS
10
103.256
20
-91.875
11
103.331
21
-91.8882
0
LINE
8
BLACK
6
CONTINUOUS
10
162.989
20
-91.8183
11
163.111
21
-91.8889
0
LINE
8
BLACK
6
CONTINUOUS
10
163.111
20
-91.8889
11
163.202
21
-91.9969
0
LINE
8
BLACK
6
CONTINUOUS
10
163.202
20
-91.9969
11
163.25
21
-92.1295
0
LINE
8
BLACK
6
CONTINUOUS
10
163.25
20
-92.1295
11
163.25
21
-92.2705
0
LINE
8
BLACK
6
CONTINUOUS
10
163.25
20
-92.2705
11
163.202
21
-92.4031
0
LINE
8
BLACK
6
CONTINUOUS
10
163.202
20
-92.4031
11
163.111
21
-92.5111
0
LINE
8
BLACK
6
CONTINUOUS
10
163.111
20
-92.5111
11
162.989
21
-92.5817
0
LINE
8
BLACK
6
CONTINUOUS
10
162.989
20
-92.5817
11
162.885
21
-92.6
0
LINE
8
BLACK
6
CONTINUOUS
10
162.885
20
-92.6
11
161.115
21
-92.6
0
LINE
8
BLACK
6
CONTINUOUS
10
161.115
20
-92.6
11
161.011
21
-92.5817
0
LINE
8
BLACK
6
CONTINUOUS
10
161.011
20
-92.5817
11
160.889
21
-92.5111
0
LINE
8
BLACK
6
CONTINUOUS
10
160.889
20
-92.5111
11
160.798
21
-92.4031
0
LINE
8
BLACK
6
CONTINUOUS
10
160.798
20
-92.4031
11
160.75
21
-92.2705
0
LINE
8
BLACK
6
CONTINUOUS
10
160.75
20
-92.2705
11
160.75
21
-92.1295
0
LINE
8
BLACK
6
CONTINUOUS
10
160.75
20
-92.1295
11
160.798
21
-91.9969
0
LINE
8
BLACK
6
CONTINUOUS
10
160.798
20
-91.9969
11
160.889
21
-91.8889
0
LINE
8
BLACK
6
CONTINUOUS
10
160.889
20
-91.8889
11
161.011
21
-91.8183
0
LINE
8
BLACK
6
CONTINUOUS
10
161.011
20
-91.8183
11
161.115
21
-91.8
0
LINE
8
BLACK
6
CONTINUOUS
10
161.115
20
-91.8
11
162.885
21
-91.8
0
LINE
8
BLACK
6
CONTINUOUS
10
162.885
20
-91.8
11
162.989
21
-91.8183
0
LINE
8
BLACK
6
CONTINUOUS
10
131.989
20
-91.8183
11
132.111
21
-91.8889
0
LINE
8
BLACK
6
CONTINUOUS
10
132.111
20
-91.8889
11
132.202
21
-91.9969
0
LINE
8
BLACK
6
CONTINUOUS
10
132.202
20
-91.9969
11
132.25
21
-92.1295
0
LINE
8
BLACK
6
CONTINUOUS
10
132.25
20
-92.1295
11
132.25
21
-92.2705
0
LINE
8
BLACK
6
CONTINUOUS
10
132.25
20
-92.2705
11
132.202
21
-92.4031
0
LINE
8
BLACK
6
CONTINUOUS
10
132.202
20
-92.4031
11
132.111
21
-92.5111
0
LINE
8
BLACK
6
CONTINUOUS
10
132.111
20
-92.5111
11
131.989
21
-92.5817
0
LINE
8
BLACK
6
CONTINUOUS
10
131.989
20
-92.5817
11
131.885
21
-92.6
0
LINE
8
BLACK
6
CONTINUOUS
10
131.885
20
-92.6
11
130.115
21
-92.6
0
LINE
8
BLACK
6
CONTINUOUS
10
130.115
20
-92.6
11
130.011
21
-92.5817
0
LINE
8
BLACK
6
CONTINUOUS
10
130.011
20
-92.5817
11
129.889
21
-92.5111
0
LINE
8
BLACK
6
CONTINUOUS
10
129.889
20
-92.5111
11
129.798
21
-92.4031
0
LINE
8
BLACK
6
CONTINUOUS
10
129.798
20
-92.4031
11
129.75
21
-92.2705
0
LINE
8
BLACK
6
CONTINUOUS
10
129.75
20
-92.2705
11
129.75
21
-92.1295
0
LINE
8
BLACK
6
CONTINUOUS
10
129.75
20
-92.1295
11
129.798
21
-91.9969
0
LINE
8
BLACK
6
CONTINUOUS
10
129.798
20
-91.9969
11
129.889
21
-91.8889
0
LINE
8
BLACK
6
CONTINUOUS
10
129.889
20
-91.8889
11
130.011
21
-91.8183
0
LINE
8
BLACK
6
CONTINUOUS
10
130.011
20
-91.8183
11
130.115
21
-91.8
0
LINE
8
BLACK
6
CONTINUOUS
10
130.115
20
-91.8
11
131.885
21
-91.8
0
LINE
8
BLACK
6
CONTINUOUS
10
131.885
20
-91.8
11
131.989
21
-91.8183
0
LINE
8
BLACK
6
CONTINUOUS
10
162.989
20
-90.5183
11
163.111
21
-90.5889
0
LINE
8
BLACK
6
CONTINUOUS
10
163.111
20
-90.5889
11
163.202
21
-90.6969
0
LINE
8
BLACK
6
CONTINUOUS
10
163.202
20
-90.6969
11
163.25
21
-90.8295
0
LINE
8
BLACK
6
CONTINUOUS
10
163.25
20
-90.8295
11
163.25
21
-90.9705
0
LINE
8
BLACK
6
CONTINUOUS
10
163.25
20
-90.9705
11
163.202
21
-91.1031
0
LINE
8
BLACK
6
CONTINUOUS
10
163.202
20
-91.1031
11
163.111
21
-91.2111
0
LINE
8
BLACK
6
CONTINUOUS
10
163.111
20
-91.2111
11
162.989
21
-91.2817
0
LINE
8
BLACK
6
CONTINUOUS
10
162.989
20
-91.2817
11
162.885
21
-91.3
0
LINE
8
BLACK
6
CONTINUOUS
10
162.885
20
-91.3
11
161.115
21
-91.3
0
LINE
8
BLACK
6
CONTINUOUS
10
161.115
20
-91.3
11
161.011
21
-91.2817
0
LINE
8
BLACK
6
CONTINUOUS
10
161.011
20
-91.2817
11
160.889
21
-91.2111
0
LINE
8
BLACK
6
CONTINUOUS
10
160.889
20
-91.2111
11
160.798
21
-91.1031
0
LINE
8
BLACK
6
CONTINUOUS
10
160.798
20
-91.1031
11
160.75
21
-90.9705
0
LINE
8
BLACK
6
CONTINUOUS
10
160.75
20
-90.9705
11
160.75
21
-90.8295
0
LINE
8
BLACK
6
CONTINUOUS
10
160.75
20
-90.8295
11
160.798
21
-90.6969
0
LINE
8
BLACK
6
CONTINUOUS
10
160.798
20
-90.6969
11
160.889
21
-90.5889
0
LINE
8
BLACK
6
CONTINUOUS
10
160.889
20
-90.5889
11
161.011
21
-90.5183
0
LINE
8
BLACK
6
CONTINUOUS
10
161.011
20
-90.5183
11
161.115
21
-90.5
0
LINE
8
BLACK
6
CONTINUOUS
10
161.115
20
-90.5
11
162.885
21
-90.5
0
LINE
8
BLACK
6
CONTINUOUS
10
162.885
20
-90.5
11
162.989
21
-90.5183
0
LINE
8
BLACK
6
CONTINUOUS
10
131.989
20
-90.5183
11
132.111
21
-90.5889
0
LINE
8
BLACK
6
CONTINUOUS
10
132.111
20
-90.5889
11
132.202
21
-90.6969
0
LINE
8
BLACK
6
CONTINUOUS
10
132.202
20
-90.6969
11
132.25
21
-90.8295
0
LINE
8
BLACK
6
CONTINUOUS
10
132.25
20
-90.8295
11
132.25
21
-90.9705
0
LINE
8
BLACK
6
CONTINUOUS
10
132.25
20
-90.9705
11
132.202
21
-91.1031
0
LINE
8
BLACK
6
CONTINUOUS
10
132.202
20
-91.1031
11
132.111
21
-91.2111
0
LINE
8
BLACK
6
CONTINUOUS
10
132.111
20
-91.2111
11
131.989
21
-91.2817
0
LINE
8
BLACK
6
CONTINUOUS
10
131.989
20
-91.2817
11
131.885
21
-91.3
0
LINE
8
BLACK
6
CONTINUOUS
10
131.885
20
-91.3
11
130.115
21
-91.3
0
LINE
8
BLACK
6
CONTINUOUS
10
130.115
20
-91.3
11
130.011
21
-91.2817
0
LINE
8
BLACK
6
CONTINUOUS
10
130.011
20
-91.2817
11
129.889
21
-91.2111
0
LINE
8
BLACK
6
CONTINUOUS
10
129.889
20
-91.2111
11
129.798
21
-91.1031
0
LINE
8
BLACK
6
CONTINUOUS
10
129.798
20
-91.1031
11
129.75
21
-90.9705
0
LINE
8
BLACK
6
CONTINUOUS
10
129.75
20
-90.9705
11
129.75
21
-90.8295
0
LINE
8
BLACK
6
CONTINUOUS
10
129.75
20
-90.8295
11
129.798
21
-90.6969
0
LINE
8
BLACK
6
CONTINUOUS
10
129.798
20
-90.6969
11
129.889
21
-90.5889
0
LINE
8
BLACK
6
CONTINUOUS
10
129.889
20
-90.5889
11
130.011
21
-90.5183
0
LINE
8
BLACK
6
CONTINUOUS
10
130.011
20
-90.5183
11
130.115
21
-90.5
0
LINE
8
BLACK
6
CONTINUOUS
10
130.115
20
-90.5
11
131.885
21
-90.5
0
LINE
8
BLACK
6
CONTINUOUS
10
131.885
20
-90.5
11
131.989
21
-90.5183
0
LINE
8
BLACK
6
CONTINUOUS
10
111.85
20
-91.25
11
111.05
21
-91.25
0
LINE
8
BLACK
6
CONTINUOUS
10
111.05
20
-91.25
11
111.05
21
-90.35
0
LINE
8
BLACK
6
CONTINUOUS
10
111.05
20
-90.35
11
111.85
21
-90.35
0
LINE
8
BLACK
6
CONTINUOUS
10
111.85
20
-90.35
11
111.85
21
-91.25
0
LINE
8
BLACK
6
CONTINUOUS
10
109.95
20
-91.25
11
109.15
21
-91.25
0
LINE
8
BLACK
6
CONTINUOUS
10
109.15
20
-91.25
11
109.15
21
-90.35
0
LINE
8
BLACK
6
CONTINUOUS
10
109.15
20
-90.35
11
109.95
21
-90.35
0
LINE
8
BLACK
6
CONTINUOUS
10
109.95
20
-90.35
11
109.95
21
-91.25
0
LINE
8
BLACK
6
CONTINUOUS
10
103.331
20
-90.3132
11
103.397
21
-90.3512
0
LINE
8
BLACK
6
CONTINUOUS
10
103.397
20
-90.3512
11
103.446
21
-90.4094
0
LINE
8
BLACK
6
CONTINUOUS
10
103.446
20
-90.4094
11
103.475
21
-90.5187
0
LINE
8
BLACK
6
CONTINUOUS
10
103.475
20
-90.5187
11
103.475
21
-90.9562
0
LINE
8
BLACK
6
CONTINUOUS
10
103.475
20
-90.9562
11
103.462
21
-91.0311
0
LINE
8
BLACK
6
CONTINUOUS
10
103.462
20
-91.0311
11
103.424
21
-91.0969
0
LINE
8
BLACK
6
CONTINUOUS
10
103.424
20
-91.0969
11
103.366
21
-91.1457
0
LINE
8
BLACK
6
CONTINUOUS
10
103.366
20
-91.1457
11
103.256
21
-91.175
0
LINE
8
BLACK
6
CONTINUOUS
10
103.256
20
-91.175
11
102.744
21
-91.175
0
LINE
8
BLACK
6
CONTINUOUS
10
102.744
20
-91.175
11
102.669
21
-91.1618
0
LINE
8
BLACK
6
CONTINUOUS
10
102.669
20
-91.1618
11
102.603
21
-91.1238
0
LINE
8
BLACK
6
CONTINUOUS
10
102.603
20
-91.1238
11
102.554
21
-91.0656
0
LINE
8
BLACK
6
CONTINUOUS
10
102.554
20
-91.0656
11
102.525
21
-90.9562
0
LINE
8
BLACK
6
CONTINUOUS
10
102.525
20
-90.9562
11
102.525
21
-90.5187
0
LINE
8
BLACK
6
CONTINUOUS
10
102.525
20
-90.5187
11
102.538
21
-90.4439
0
LINE
8
BLACK
6
CONTINUOUS
10
102.538
20
-90.4439
11
102.576
21
-90.3781
0
LINE
8
BLACK
6
CONTINUOUS
10
102.576
20
-90.3781
11
102.634
21
-90.3293
0
LINE
8
BLACK
6
CONTINUOUS
10
102.634
20
-90.3293
11
102.744
21
-90.3
0
LINE
8
BLACK
6
CONTINUOUS
10
102.744
20
-90.3
11
103.256
21
-90.3
0
LINE
8
BLACK
6
CONTINUOUS
10
103.256
20
-90.3
11
103.331
21
-90.3132
0
LINE
8
BLACK
6
CONTINUOUS
10
125.7
20
-90.9
11
124.4
21
-90.9
0
LINE
8
BLACK
6
CONTINUOUS
10
124.4
20
-90.9
11
124.4
21
-89.1
0
LINE
8
BLACK
6
CONTINUOUS
10
124.4
20
-89.1
11
125.7
21
-89.1
0
LINE
8
BLACK
6
CONTINUOUS
10
125.7
20
-89.1
11
125.7
21
-90.9
0
LINE
8
BLACK
6
CONTINUOUS
10
114
20
-90.9
11
112.7
21
-90.9
0
LINE
8
BLACK
6
CONTINUOUS
10
112.7
20
-90.9
11
112.7
21
-89.1
0
LINE
8
BLACK
6
CONTINUOUS
10
112.7
20
-89.1
11
114
21
-89.1
0
LINE
8
BLACK
6
CONTINUOUS
10
114
20
-89.1
11
114
21
-90.9
0
LINE
8
BLACK
6
CONTINUOUS
10
131.989
20
-89.2183
11
132.111
21
-89.2889
0
LINE
8
BLACK
6
CONTINUOUS
10
132.111
20
-89.2889
11
132.202
21
-89.3969
0
LINE
8
BLACK
6
CONTINUOUS
10
132.202
20
-89.3969
11
132.25
21
-89.5295
0
LINE
8
BLACK
6
CONTINUOUS
10
132.25
20
-89.5295
11
132.25
21
-89.6705
0
LINE
8
BLACK
6
CONTINUOUS
10
132.25
20
-89.6705
11
132.202
21
-89.8031
0
LINE
8
BLACK
6
CONTINUOUS
10
132.202
20
-89.8031
11
132.111
21
-89.9111
0
LINE
8
BLACK
6
CONTINUOUS
10
132.111
20
-89.9111
11
131.989
21
-89.9817
0
LINE
8
BLACK
6
CONTINUOUS
10
131.989
20
-89.9817
11
131.885
21
-90
0
LINE
8
BLACK
6
CONTINUOUS
10
131.885
20
-90
11
130.115
21
-90
0
LINE
8
BLACK
6
CONTINUOUS
10
130.115
20
-90
11
130.011
21
-89.9817
0
LINE
8
BLACK
6
CONTINUOUS
10
130.011
20
-89.9817
11
129.889
21
-89.9111
0
LINE
8
BLACK
6
CONTINUOUS
10
129.889
20
-89.9111
11
129.798
21
-89.8031
0
LINE
8
BLACK
6
CONTINUOUS
10
129.798
20
-89.8031
11
129.75
21
-89.6705
0
LINE
8
BLACK
6
CONTINUOUS
10
129.75
20
-89.6705
11
129.75
21
-89.5295
0
LINE
8
BLACK
6
CONTINUOUS
10
129.75
20
-89.5295
11
129.798
21
-89.3969
0
LINE
8
BLACK
6
CONTINUOUS
10
129.798
20
-89.3969
11
129.889
21
-89.2889
0
LINE
8
BLACK
6
CONTINUOUS
10
129.889
20
-89.2889
11
130.011
21
-89.2183
0
LINE
8
BLACK
6
CONTINUOUS
10
130.011
20
-89.2183
11
130.115
21
-89.2
0
LINE
8
BLACK
6
CONTINUOUS
10
130.115
20
-89.2
11
131.885
21
-89.2
0
LINE
8
BLACK
6
CONTINUOUS
10
131.885
20
-89.2
11
131.989
21
-89.2183
0
LINE
8
BLACK
6
CONTINUOUS
10
162.989
20
-89.2183
11
163.111
21
-89.2889
0
LINE
8
BLACK
6
CONTINUOUS
10
163.111
20
-89.2889
11
163.202
21
-89.3969
0
LINE
8
BLACK
6
CONTINUOUS
10
163.202
20
-89.3969
11
163.25
21
-89.5295
0
LINE
8
BLACK
6
CONTINUOUS
10
163.25
20
-89.5295
11
163.25
21
-89.6705
0
LINE
8
BLACK
6
CONTINUOUS
10
163.25
20
-89.6705
11
163.202
21
-89.8031
0
LINE
8
BLACK
6
CONTINUOUS
10
163.202
20
-89.8031
11
163.111
21
-89.9111
0
LINE
8
BLACK
6
CONTINUOUS
10
163.111
20
-89.9111
11
162.989
21
-89.9817
0
LINE
8
BLACK
6
CONTINUOUS
10
162.989
20
-89.9817
11
162.885
21
-90
0
LINE
8
BLACK
6
CONTINUOUS
10
162.885
20
-90
11
161.115
21
-90
0
LINE
8
BLACK
6
CONTINUOUS
10
161.115
20
-90
11
161.011
21
-89.9817
0
LINE
8
BLACK
6
CONTINUOUS
10
161.011
20
-89.9817
11
160.889
21
-89.9111
0
LINE
8
BLACK
6
CONTINUOUS
10
160.889
20
-89.9111
11
160.798
21
-89.8031
0
LINE
8
BLACK
6
CONTINUOUS
10
160.798
20
-89.8031
11
160.75
21
-89.6705
0
LINE
8
BLACK
6
CONTINUOUS
10
160.75
20
-89.6705
11
160.75
21
-89.5295
0
LINE
8
BLACK
6
CONTINUOUS
10
160.75
20
-89.5295
11
160.798
21
-89.3969
0
LINE
8
BLACK
6
CONTINUOUS
10
160.798
20
-89.3969
11
160.889
21
-89.2889
0
LINE
8
BLACK
6
CONTINUOUS
10
160.889
20
-89.2889
11
161.011
21
-89.2183
0
LINE
8
BLACK
6
CONTINUOUS
10
161.011
20
-89.2183
11
161.115
21
-89.2
0
LINE
8
BLACK
6
CONTINUOUS
10
161.115
20
-89.2
11
162.885
21
-89.2
0
LINE
8
BLACK
6
CONTINUOUS
10
162.885
20
-89.2
11
162.989
21
-89.2183
0
LINE
8
BLACK
6
CONTINUOUS
10
155.7
20
-89.8
11
153.7
21
-89.8
0
LINE
8
BLACK
6
CONTINUOUS
10
153.7
20
-89.8
11
153.7
21
-86.8
0
LINE
8
BLACK
6
CONTINUOUS
10
153.7
20
-86.8
11
155.7
21
-86.8
0
LINE
8
BLACK
6
CONTINUOUS
10
155.7
20
-86.8
11
155.7
21
-89.8
0
LINE
8
BLACK
6
CONTINUOUS
10
152.5
20
-89.8
11
150.5
21
-89.8
0
LINE
8
BLACK
6
CONTINUOUS
10
150.5
20
-89.8
11
150.5
21
-86.8
0
LINE
8
BLACK
6
CONTINUOUS
10
150.5
20
-86.8
11
152.5
21
-86.8
0
LINE
8
BLACK
6
CONTINUOUS
10
152.5
20
-86.8
11
152.5
21
-89.8
0
LINE
8
BLACK
6
CONTINUOUS
10
145.9
20
-89.8
11
143.9
21
-89.8
0
LINE
8
BLACK
6
CONTINUOUS
10
143.9
20
-89.8
11
143.9
21
-86.8
0
LINE
8
BLACK
6
CONTINUOUS
10
143.9
20
-86.8
11
145.9
21
-86.8
0
LINE
8
BLACK
6
CONTINUOUS
10
145.9
20
-86.8
11
145.9
21
-89.8
0
LINE
8
BLACK
6
CONTINUOUS
10
142.5
20
-89.8
11
140.5
21
-89.8
0
LINE
8
BLACK
6
CONTINUOUS
10
140.5
20
-89.8
11
140.5
21
-86.8
0
LINE
8
BLACK
6
CONTINUOUS
10
140.5
20
-86.8
11
142.5
21
-86.8
0
LINE
8
BLACK
6
CONTINUOUS
10
142.5
20
-86.8
11
142.5
21
-89.8
0
LINE
8
BLACK
6
CONTINUOUS
10
149.1
20
-89.8
11
147.1
21
-89.8
0
LINE
8
BLACK
6
CONTINUOUS
10
147.1
20
-89.8
11
147.1
21
-86.8
0
LINE
8
BLACK
6
CONTINUOUS
10
147.1
20
-86.8
11
149.1
21
-86.8
0
LINE
8
BLACK
6
CONTINUOUS
10
149.1
20
-86.8
11
149.1
21
-89.8
0
LINE
8
BLACK
6
CONTINUOUS
10
139.3
20
-89.8
11
137.3
21
-89.8
0
LINE
8
BLACK
6
CONTINUOUS
10
137.3
20
-89.8
11
137.3
21
-86.8
0
LINE
8
BLACK
6
CONTINUOUS
10
137.3
20
-86.8
11
139.3
21
-86.8
0
LINE
8
BLACK
6
CONTINUOUS
10
139.3
20
-86.8
11
139.3
21
-89.8
0
LINE
8
BLACK
6
CONTINUOUS
10
110.713
20
-89.0889
11
110.757
21
-89.1145
0
LINE
8
BLACK
6
CONTINUOUS
10
110.757
20
-89.1145
11
110.79
21
-89.1538
0
LINE
8
BLACK
6
CONTINUOUS
10
110.79
20
-89.1538
11
110.81
21
-89.2275
0
LINE
8
BLACK
6
CONTINUOUS
10
110.81
20
-89.2275
11
110.81
21
-89.5725
0
LINE
8
BLACK
6
CONTINUOUS
10
110.81
20
-89.5725
11
110.801
21
-89.6229
0
LINE
8
BLACK
6
CONTINUOUS
10
110.801
20
-89.6229
11
110.775
21
-89.6673
0
LINE
8
BLACK
6
CONTINUOUS
10
110.775
20
-89.6673
11
110.736
21
-89.7002
0
LINE
8
BLACK
6
CONTINUOUS
10
110.736
20
-89.7002
11
110.662
21
-89.72
0
LINE
8
BLACK
6
CONTINUOUS
10
110.662
20
-89.72
11
110.367
21
-89.72
0
LINE
8
BLACK
6
CONTINUOUS
10
110.367
20
-89.72
11
110.317
21
-89.7111
0
LINE
8
BLACK
6
CONTINUOUS
10
110.317
20
-89.7111
11
110.273
21
-89.6855
0
LINE
8
BLACK
6
CONTINUOUS
10
110.273
20
-89.6855
11
110.24
21
-89.6462
0
LINE
8
BLACK
6
CONTINUOUS
10
110.24
20
-89.6462
11
110.22
21
-89.5725
0
LINE
8
BLACK
6
CONTINUOUS
10
110.22
20
-89.5725
11
110.22
21
-89.2275
0
LINE
8
BLACK
6
CONTINUOUS
10
110.22
20
-89.2275
11
110.229
21
-89.1771
0
LINE
8
BLACK
6
CONTINUOUS
10
110.229
20
-89.1771
11
110.255
21
-89.1327
0
LINE
8
BLACK
6
CONTINUOUS
10
110.255
20
-89.1327
11
110.294
21
-89.0998
0
LINE
8
BLACK
6
CONTINUOUS
10
110.294
20
-89.0998
11
110.367
21
-89.08
0
LINE
8
BLACK
6
CONTINUOUS
10
110.367
20
-89.08
11
110.662
21
-89.08
0
LINE
8
BLACK
6
CONTINUOUS
10
110.662
20
-89.08
11
110.713
21
-89.0889
0
LINE
8
BLACK
6
CONTINUOUS
10
111.683
20
-89.0889
11
111.727
21
-89.1145
0
LINE
8
BLACK
6
CONTINUOUS
10
111.727
20
-89.1145
11
111.76
21
-89.1538
0
LINE
8
BLACK
6
CONTINUOUS
10
111.76
20
-89.1538
11
111.78
21
-89.2275
0
LINE
8
BLACK
6
CONTINUOUS
10
111.78
20
-89.2275
11
111.78
21
-89.5725
0
LINE
8
BLACK
6
CONTINUOUS
10
111.78
20
-89.5725
11
111.771
21
-89.6229
0
LINE
8
BLACK
6
CONTINUOUS
10
111.771
20
-89.6229
11
111.745
21
-89.6673
0
LINE
8
BLACK
6
CONTINUOUS
10
111.745
20
-89.6673
11
111.706
21
-89.7002
0
LINE
8
BLACK
6
CONTINUOUS
10
111.706
20
-89.7002
11
111.632
21
-89.72
0
LINE
8
BLACK
6
CONTINUOUS
10
111.632
20
-89.72
11
111.337
21
-89.72
0
LINE
8
BLACK
6
CONTINUOUS
10
111.337
20
-89.72
11
111.287
21
-89.7111
0
LINE
8
BLACK
6
CONTINUOUS
10
111.287
20
-89.7111
11
111.243
21
-89.6855
0
LINE
8
BLACK
6
CONTINUOUS
10
111.243
20
-89.6855
11
111.21
21
-89.6462
0
LINE
8
BLACK
6
CONTINUOUS
10
111.21
20
-89.6462
11
111.19
21
-89.5725
0
LINE
8
BLACK
6
CONTINUOUS
10
111.19
20
-89.5725
11
111.19
21
-89.2275
0
LINE
8
BLACK
6
CONTINUOUS
10
111.19
20
-89.2275
11
111.199
21
-89.1771
0
LINE
8
BLACK
6
CONTINUOUS
10
111.199
20
-89.1771
11
111.225
21
-89.1327
0
LINE
8
BLACK
6
CONTINUOUS
10
111.225
20
-89.1327
11
111.264
21
-89.0998
0
LINE
8
BLACK
6
CONTINUOUS
10
111.264
20
-89.0998
11
111.337
21
-89.08
0
LINE
8
BLACK
6
CONTINUOUS
10
111.337
20
-89.08
11
111.632
21
-89.08
0
LINE
8
BLACK
6
CONTINUOUS
10
111.632
20
-89.08
11
111.683
21
-89.0889
0
LINE
8
BLACK
6
CONTINUOUS
10
109.283
20
-88.1389
11
109.327
21
-88.1645
0
LINE
8
BLACK
6
CONTINUOUS
10
109.327
20
-88.1645
11
109.36
21
-88.2037
0
LINE
8
BLACK
6
CONTINUOUS
10
109.36
20
-88.2037
11
109.38
21
-88.2775
0
LINE
8
BLACK
6
CONTINUOUS
10
109.38
20
-88.2775
11
109.38
21
-88.6225
0
LINE
8
BLACK
6
CONTINUOUS
10
109.38
20
-88.6225
11
109.371
21
-88.6729
0
LINE
8
BLACK
6
CONTINUOUS
10
109.371
20
-88.6729
11
109.345
21
-88.7173
0
LINE
8
BLACK
6
CONTINUOUS
10
109.345
20
-88.7173
11
109.306
21
-88.7502
0
LINE
8
BLACK
6
CONTINUOUS
10
109.306
20
-88.7502
11
109.233
21
-88.77
0
LINE
8
BLACK
6
CONTINUOUS
10
109.233
20
-88.77
11
108.938
21
-88.77
0
LINE
8
BLACK
6
CONTINUOUS
10
108.938
20
-88.77
11
108.887
21
-88.7611
0
LINE
8
BLACK
6
CONTINUOUS
10
108.887
20
-88.7611
11
108.843
21
-88.7355
0
LINE
8
BLACK
6
CONTINUOUS
10
108.843
20
-88.7355
11
108.81
21
-88.6962
0
LINE
8
BLACK
6
CONTINUOUS
10
108.81
20
-88.6962
11
108.79
21
-88.6225
0
LINE
8
BLACK
6
CONTINUOUS
10
108.79
20
-88.6225
11
108.79
21
-88.2775
0
LINE
8
BLACK
6
CONTINUOUS
10
108.79
20
-88.2775
11
108.799
21
-88.2271
0
LINE
8
BLACK
6
CONTINUOUS
10
108.799
20
-88.2271
11
108.825
21
-88.1827
0
LINE
8
BLACK
6
CONTINUOUS
10
108.825
20
-88.1827
11
108.864
21
-88.1498
0
LINE
8
BLACK
6
CONTINUOUS
10
108.864
20
-88.1498
11
108.938
21
-88.13
0
LINE
8
BLACK
6
CONTINUOUS
10
108.938
20
-88.13
11
109.233
21
-88.13
0
LINE
8
BLACK
6
CONTINUOUS
10
109.233
20
-88.13
11
109.283
21
-88.1389
0
LINE
8
BLACK
6
CONTINUOUS
10
108.313
20
-88.1389
11
108.357
21
-88.1645
0
LINE
8
BLACK
6
CONTINUOUS
10
108.357
20
-88.1645
11
108.39
21
-88.2037
0
LINE
8
BLACK
6
CONTINUOUS
10
108.39
20
-88.2037
11
108.41
21
-88.2775
0
LINE
8
BLACK
6
CONTINUOUS
10
108.41
20
-88.2775
11
108.41
21
-88.6225
0
LINE
8
BLACK
6
CONTINUOUS
10
108.41
20
-88.6225
11
108.401
21
-88.6729
0
LINE
8
BLACK
6
CONTINUOUS
10
108.401
20
-88.6729
11
108.375
21
-88.7173
0
LINE
8
BLACK
6
CONTINUOUS
10
108.375
20
-88.7173
11
108.336
21
-88.7502
0
LINE
8
BLACK
6
CONTINUOUS
10
108.336
20
-88.7502
11
108.262
21
-88.77
0
LINE
8
BLACK
6
CONTINUOUS
10
108.262
20
-88.77
11
107.968
21
-88.77
0
LINE
8
BLACK
6
CONTINUOUS
10
107.968
20
-88.77
11
107.917
21
-88.7611
0
LINE
8
BLACK
6
CONTINUOUS
10
107.917
20
-88.7611
11
107.873
21
-88.7355
0
LINE
8
BLACK
6
CONTINUOUS
10
107.873
20
-88.7355
11
107.84
21
-88.6962
0
LINE
8
BLACK
6
CONTINUOUS
10
107.84
20
-88.6962
11
107.82
21
-88.6225
0
LINE
8
BLACK
6
CONTINUOUS
10
107.82
20
-88.6225
11
107.82
21
-88.2775
0
LINE
8
BLACK
6
CONTINUOUS
10
107.82
20
-88.2775
11
107.829
21
-88.2271
0
LINE
8
BLACK
6
CONTINUOUS
10
107.829
20
-88.2271
11
107.855
21
-88.1827
0
LINE
8
BLACK
6
CONTINUOUS
10
107.855
20
-88.1827
11
107.894
21
-88.1498
0
LINE
8
BLACK
6
CONTINUOUS
10
107.894
20
-88.1498
11
107.968
21
-88.13
0
LINE
8
BLACK
6
CONTINUOUS
10
107.968
20
-88.13
11
108.262
21
-88.13
0
LINE
8
BLACK
6
CONTINUOUS
10
108.262
20
-88.13
11
108.313
21
-88.1389
0
LINE
8
BLACK
6
CONTINUOUS
10
131.989
20
-87.9183
11
132.111
21
-87.9889
0
LINE
8
BLACK
6
CONTINUOUS
10
132.111
20
-87.9889
11
132.202
21
-88.0969
0
LINE
8
BLACK
6
CONTINUOUS
10
132.202
20
-88.0969
11
132.25
21
-88.2295
0
LINE
8
BLACK
6
CONTINUOUS
10
132.25
20
-88.2295
11
132.25
21
-88.3705
0
LINE
8
BLACK
6
CONTINUOUS
10
132.25
20
-88.3705
11
132.202
21
-88.5031
0
LINE
8
BLACK
6
CONTINUOUS
10
132.202
20
-88.5031
11
132.111
21
-88.6111
0
LINE
8
BLACK
6
CONTINUOUS
10
132.111
20
-88.6111
11
131.989
21
-88.6817
0
LINE
8
BLACK
6
CONTINUOUS
10
131.989
20
-88.6817
11
131.885
21
-88.7
0
LINE
8
BLACK
6
CONTINUOUS
10
131.885
20
-88.7
11
130.115
21
-88.7
0
LINE
8
BLACK
6
CONTINUOUS
10
130.115
20
-88.7
11
130.011
21
-88.6817
0
LINE
8
BLACK
6
CONTINUOUS
10
130.011
20
-88.6817
11
129.889
21
-88.6111
0
LINE
8
BLACK
6
CONTINUOUS
10
129.889
20
-88.6111
11
129.798
21
-88.5031
0
LINE
8
BLACK
6
CONTINUOUS
10
129.798
20
-88.5031
11
129.75
21
-88.3705
0
LINE
8
BLACK
6
CONTINUOUS
10
129.75
20
-88.3705
11
129.75
21
-88.2295
0
LINE
8
BLACK
6
CONTINUOUS
10
129.75
20
-88.2295
11
129.798
21
-88.0969
0
LINE
8
BLACK
6
CONTINUOUS
10
129.798
20
-88.0969
11
129.889
21
-87.9889
0
LINE
8
BLACK
6
CONTINUOUS
10
129.889
20
-87.9889
11
130.011
21
-87.9183
0
LINE
8
BLACK
6
CONTINUOUS
10
130.011
20
-87.9183
11
130.115
21
-87.9
0
LINE
8
BLACK
6
CONTINUOUS
10
130.115
20
-87.9
11
131.885
21
-87.9
0
LINE
8
BLACK
6
CONTINUOUS
10
131.885
20
-87.9
11
131.989
21
-87.9183
0
LINE
8
BLACK
6
CONTINUOUS
10
162.989
20
-87.9183
11
163.111
21
-87.9889
0
LINE
8
BLACK
6
CONTINUOUS
10
163.111
20
-87.9889
11
163.202
21
-88.0969
0
LINE
8
BLACK
6
CONTINUOUS
10
163.202
20
-88.0969
11
163.25
21
-88.2295
0
LINE
8
BLACK
6
CONTINUOUS
10
163.25
20
-88.2295
11
163.25
21
-88.3705
0
LINE
8
BLACK
6
CONTINUOUS
10
163.25
20
-88.3705
11
163.202
21
-88.5031
0
LINE
8
BLACK
6
CONTINUOUS
10
163.202
20
-88.5031
11
163.111
21
-88.6111
0
LINE
8
BLACK
6
CONTINUOUS
10
163.111
20
-88.6111
11
162.989
21
-88.6817
0
LINE
8
BLACK
6
CONTINUOUS
10
162.989
20
-88.6817
11
162.885
21
-88.7
0
LINE
8
BLACK
6
CONTINUOUS
10
162.885
20
-88.7
11
161.115
21
-88.7
0
LINE
8
BLACK
6
CONTINUOUS
10
161.115
20
-88.7
11
161.011
21
-88.6817
0
LINE
8
BLACK
6
CONTINUOUS
10
161.011
20
-88.6817
11
160.889
21
-88.6111
0
LINE
8
BLACK
6
CONTINUOUS
10
160.889
20
-88.6111
11
160.798
21
-88.5031
0
LINE
8
BLACK
6
CONTINUOUS
10
160.798
20
-88.5031
11
160.75
21
-88.3705
0
LINE
8
BLACK
6
CONTINUOUS
10
160.75
20
-88.3705
11
160.75
21
-88.2295
0
LINE
8
BLACK
6
CONTINUOUS
10
160.75
20
-88.2295
11
160.798
21
-88.0969
0
LINE
8
BLACK
6
CONTINUOUS
10
160.798
20
-88.0969
11
160.889
21
-87.9889
0
LINE
8
BLACK
6
CONTINUOUS
10
160.889
20
-87.9889
11
161.011
21
-87.9183
0
LINE
8
BLACK
6
CONTINUOUS
10
161.011
20
-87.9183
11
161.115
21
-87.9
0
LINE
8
BLACK
6
CONTINUOUS
10
161.115
20
-87.9
11
162.885
21
-87.9
0
LINE
8
BLACK
6
CONTINUOUS
10
162.885
20
-87.9
11
162.989
21
-87.9183
0
LINE
8
BLACK
6
CONTINUOUS
10
162.989
20
-86.6183
11
163.111
21
-86.6889
0
LINE
8
BLACK
6
CONTINUOUS
10
163.111
20
-86.6889
11
163.202
21
-86.7969
0
LINE
8
BLACK
6
CONTINUOUS
10
163.202
20
-86.7969
11
163.25
21
-86.9295
0
LINE
8
BLACK
6
CONTINUOUS
10
163.25
20
-86.9295
11
163.25
21
-87.0705
0
LINE
8
BLACK
6
CONTINUOUS
10
163.25
20
-87.0705
11
163.202
21
-87.2031
0
LINE
8
BLACK
6
CONTINUOUS
10
163.202
20
-87.2031
11
163.111
21
-87.3111
0
LINE
8
BLACK
6
CONTINUOUS
10
163.111
20
-87.3111
11
162.989
21
-87.3817
0
LINE
8
BLACK
6
CONTINUOUS
10
162.989
20
-87.3817
11
162.885
21
-87.4
0
LINE
8
BLACK
6
CONTINUOUS
10
162.885
20
-87.4
11
161.115
21
-87.4
0
LINE
8
BLACK
6
CONTINUOUS
10
161.115
20
-87.4
11
161.011
21
-87.3817
0
LINE
8
BLACK
6
CONTINUOUS
10
161.011
20
-87.3817
11
160.889
21
-87.3111
0
LINE
8
BLACK
6
CONTINUOUS
10
160.889
20
-87.3111
11
160.798
21
-87.2031
0
LINE
8
BLACK
6
CONTINUOUS
10
160.798
20
-87.2031
11
160.75
21
-87.0705
0
LINE
8
BLACK
6
CONTINUOUS
10
160.75
20
-87.0705
11
160.75
21
-86.9295
0
LINE
8
BLACK
6
CONTINUOUS
10
160.75
20
-86.9295
11
160.798
21
-86.7969
0
LINE
8
BLACK
6
CONTINUOUS
10
160.798
20
-86.7969
11
160.889
21
-86.6889
0
LINE
8
BLACK
6
CONTINUOUS
10
160.889
20
-86.6889
11
161.011
21
-86.6183
0
LINE
8
BLACK
6
CONTINUOUS
10
161.011
20
-86.6183
11
161.115
21
-86.6
0
LINE
8
BLACK
6
CONTINUOUS
10
161.115
20
-86.6
11
162.885
21
-86.6
0
LINE
8
BLACK
6
CONTINUOUS
10
162.885
20
-86.6
11
162.989
21
-86.6183
0
LINE
8
BLACK
6
CONTINUOUS
10
131.989
20
-86.6183
11
132.111
21
-86.6889
0
LINE
8
BLACK
6
CONTINUOUS
10
132.111
20
-86.6889
11
132.202
21
-86.7969
0
LINE
8
BLACK
6
CONTINUOUS
10
132.202
20
-86.7969
11
132.25
21
-86.9295
0
LINE
8
BLACK
6
CONTINUOUS
10
132.25
20
-86.9295
11
132.25
21
-87.0705
0
LINE
8
BLACK
6
CONTINUOUS
10
132.25
20
-87.0705
11
132.202
21
-87.2031
0
LINE
8
BLACK
6
CONTINUOUS
10
132.202
20
-87.2031
11
132.111
21
-87.3111
0
LINE
8
BLACK
6
CONTINUOUS
10
132.111
20
-87.3111
11
131.989
21
-87.3817
0
LINE
8
BLACK
6
CONTINUOUS
10
131.989
20
-87.3817
11
131.885
21
-87.4
0
LINE
8
BLACK
6
CONTINUOUS
10
131.885
20
-87.4
11
130.115
21
-87.4
0
LINE
8
BLACK
6
CONTINUOUS
10
130.115
20
-87.4
11
130.011
21
-87.3817
0
LINE
8
BLACK
6
CONTINUOUS
10
130.011
20
-87.3817
11
129.889
21
-87.3111
0
LINE
8
BLACK
6
CONTINUOUS
10
129.889
20
-87.3111
11
129.798
21
-87.2031
0
LINE
8
BLACK
6
CONTINUOUS
10
129.798
20
-87.2031
11
129.75
21
-87.0705
0
LINE
8
BLACK
6
CONTINUOUS
10
129.75
20
-87.0705
11
129.75
21
-86.9295
0
LINE
8
BLACK
6
CONTINUOUS
10
129.75
20
-86.9295
11
129.798
21
-86.7969
0
LINE
8
BLACK
6
CONTINUOUS
10
129.798
20
-86.7969
11
129.889
21
-86.6889
0
LINE
8
BLACK
6
CONTINUOUS
10
129.889
20
-86.6889
11
130.011
21
-86.6183
0
LINE
8
BLACK
6
CONTINUOUS
10
130.011
20
-86.6183
11
130.115
21
-86.6
0
LINE
8
BLACK
6
CONTINUOUS
10
130.115
20
-86.6
11
131.885
21
-86.6
0
LINE
8
BLACK
6
CONTINUOUS
10
131.885
20
-86.6
11
131.989
21
-86.6183
0
LINE
8
BLACK
6
CONTINUOUS
10
122.825
20
-86.5
11
121.925
21
-86.5
0
LINE
8
BLACK
6
CONTINUOUS
10
121.925
20
-86.5
11
121.925
21
-85.3
0
LINE
8
BLACK
6
CONTINUOUS
10
121.925
20
-85.3
11
122.825
21
-85.3
0
LINE
8
BLACK
6
CONTINUOUS
10
122.825
20
-85.3
11
122.825
21
-86.5
0
LINE
8
BLACK
6
CONTINUOUS
10
121.555
20
-86.5
11
120.655
21
-86.5
0
LINE
8
BLACK
6
CONTINUOUS
10
120.655
20
-86.5
11
120.655
21
-85.3
0
LINE
8
BLACK
6
CONTINUOUS
10
120.655
20
-85.3
11
121.555
21
-85.3
0
LINE
8
BLACK
6
CONTINUOUS
10
121.555
20
-85.3
11
121.555
21
-86.5
0
LINE
8
BLACK
6
CONTINUOUS
10
116.475
20
-86.5
11
115.575
21
-86.5
0
LINE
8
BLACK
6
CONTINUOUS
10
115.575
20
-86.5
11
115.575
21
-85.3
0
LINE
8
BLACK
6
CONTINUOUS
10
115.575
20
-85.3
11
116.475
21
-85.3
0
LINE
8
BLACK
6
CONTINUOUS
10
116.475
20
-85.3
11
116.475
21
-86.5
0
LINE
8
BLACK
6
CONTINUOUS
10
117.745
20
-86.5
11
116.845
21
-86.5
0
LINE
8
BLACK
6
CONTINUOUS
10
116.845
20
-86.5
11
116.845
21
-85.3
0
LINE
8
BLACK
6
CONTINUOUS
10
116.845
20
-85.3
11
117.745
21
-85.3
0
LINE
8
BLACK
6
CONTINUOUS
10
117.745
20
-85.3
11
117.745
21
-86.5
0
LINE
8
BLACK
6
CONTINUOUS
10
119.015
20
-86.5
11
118.115
21
-86.5
0
LINE
8
BLACK
6
CONTINUOUS
10
118.115
20
-86.5
11
118.115
21
-85.3
0
LINE
8
BLACK
6
CONTINUOUS
10
118.115
20
-85.3
11
119.015
21
-85.3
0
LINE
8
BLACK
6
CONTINUOUS
10
119.015
20
-85.3
11
119.015
21
-86.5
0
LINE
8
BLACK
6
CONTINUOUS
10
120.285
20
-86.5
11
119.385
21
-86.5
0
LINE
8
BLACK
6
CONTINUOUS
10
119.385
20
-86.5
11
119.385
21
-85.3
0
LINE
8
BLACK
6
CONTINUOUS
10
119.385
20
-85.3
11
120.285
21
-85.3
0
LINE
8
BLACK
6
CONTINUOUS
10
120.285
20
-85.3
11
120.285
21
-86.5
0
LINE
8
BLACK
6
CONTINUOUS
10
131.989
20
-85.3183
11
132.111
21
-85.3889
0
LINE
8
BLACK
6
CONTINUOUS
10
132.111
20
-85.3889
11
132.202
21
-85.4969
0
LINE
8
BLACK
6
CONTINUOUS
10
132.202
20
-85.4969
11
132.25
21
-85.6295
0
LINE
8
BLACK
6
CONTINUOUS
10
132.25
20
-85.6295
11
132.25
21
-85.7705
0
LINE
8
BLACK
6
CONTINUOUS
10
132.25
20
-85.7705
11
132.202
21
-85.9031
0
LINE
8
BLACK
6
CONTINUOUS
10
132.202
20
-85.9031
11
132.111
21
-86.0111
0
LINE
8
BLACK
6
CONTINUOUS
10
132.111
20
-86.0111
11
131.989
21
-86.0817
0
LINE
8
BLACK
6
CONTINUOUS
10
131.989
20
-86.0817
11
131.885
21
-86.1
0
LINE
8
BLACK
6
CONTINUOUS
10
131.885
20
-86.1
11
130.115
21
-86.1
0
LINE
8
BLACK
6
CONTINUOUS
10
130.115
20
-86.1
11
130.011
21
-86.0817
0
LINE
8
BLACK
6
CONTINUOUS
10
130.011
20
-86.0817
11
129.889
21
-86.0111
0
LINE
8
BLACK
6
CONTINUOUS
10
129.889
20
-86.0111
11
129.798
21
-85.9031
0
LINE
8
BLACK
6
CONTINUOUS
10
129.798
20
-85.9031
11
129.75
21
-85.7705
0
LINE
8
BLACK
6
CONTINUOUS
10
129.75
20
-85.7705
11
129.75
21
-85.6295
0
LINE
8
BLACK
6
CONTINUOUS
10
129.75
20
-85.6295
11
129.798
21
-85.4969
0
LINE
8
BLACK
6
CONTINUOUS
10
129.798
20
-85.4969
11
129.889
21
-85.3889
0
LINE
8
BLACK
6
CONTINUOUS
10
129.889
20
-85.3889
11
130.011
21
-85.3183
0
LINE
8
BLACK
6
CONTINUOUS
10
130.011
20
-85.3183
11
130.115
21
-85.3
0
LINE
8
BLACK
6
CONTINUOUS
10
130.115
20
-85.3
11
131.885
21
-85.3
0
LINE
8
BLACK
6
CONTINUOUS
10
131.885
20
-85.3
11
131.989
21
-85.3183
0
LINE
8
BLACK
6
CONTINUOUS
10
162.989
20
-85.3183
11
163.111
21
-85.3889
0
LINE
8
BLACK
6
CONTINUOUS
10
163.111
20
-85.3889
11
163.202
21
-85.4969
0
LINE
8
BLACK
6
CONTINUOUS
10
163.202
20
-85.4969
11
163.25
21
-85.6295
0
LINE
8
BLACK
6
CONTINUOUS
10
163.25
20
-85.6295
11
163.25
21
-85.7705
0
LINE
8
BLACK
6
CONTINUOUS
10
163.25
20
-85.7705
11
163.202
21
-85.9031
0
LINE
8
BLACK
6
CONTINUOUS
10
163.202
20
-85.9031
11
163.111
21
-86.0111
0
LINE
8
BLACK
6
CONTINUOUS
10
163.111
20
-86.0111
11
162.989
21
-86.0817
0
LINE
8
BLACK
6
CONTINUOUS
10
162.989
20
-86.0817
11
162.885
21
-86.1
0
LINE
8
BLACK
6
CONTINUOUS
10
162.885
20
-86.1
11
161.115
21
-86.1
0
LINE
8
BLACK
6
CONTINUOUS
10
161.115
20
-86.1
11
161.011
21
-86.0817
0
LINE
8
BLACK
6
CONTINUOUS
10
161.011
20
-86.0817
11
160.889
21
-86.0111
0
LINE
8
BLACK
6
CONTINUOUS
10
160.889
20
-86.0111
11
160.798
21
-85.9031
0
LINE
8
BLACK
6
CONTINUOUS
10
160.798
20
-85.9031
11
160.75
21
-85.7705
0
LINE
8
BLACK
6
CONTINUOUS
10
160.75
20
-85.7705
11
160.75
21
-85.6295
0
LINE
8
BLACK
6
CONTINUOUS
10
160.75
20
-85.6295
11
160.798
21
-85.4969
0
LINE
8
BLACK
6
CONTINUOUS
10
160.798
20
-85.4969
11
160.889
21
-85.3889
0
LINE
8
BLACK
6
CONTINUOUS
10
160.889
20
-85.3889
11
161.011
21
-85.3183
0
LINE
8
BLACK
6
CONTINUOUS
10
161.011
20
-85.3183
11
161.115
21
-85.3
0
LINE
8
BLACK
6
CONTINUOUS
10
161.115
20
-85.3
11
162.885
21
-85.3
0
LINE
8
BLACK
6
CONTINUOUS
10
162.885
20
-85.3
11
162.989
21
-85.3183
0
LINE
8
BLACK
6
CONTINUOUS
10
111.45
20
-85.85
11
110.35
21
-85.85
0
LINE
8
BLACK
6
CONTINUOUS
10
110.35
20
-85.85
11
110.35
21
-84.75
0
LINE
8
BLACK
6
CONTINUOUS
10
110.35
20
-84.75
11
111.45
21
-84.75
0
LINE
8
BLACK
6
CONTINUOUS
10
111.45
20
-84.75
11
111.45
21
-85.85
0
LINE
8
BLACK
6
CONTINUOUS
10
152.5
20
-85
11
150.5
21
-85
0
LINE
8
BLACK
6
CONTINUOUS
10
150.5
20
-85
11
150.5
21
-82
0
LINE
8
BLACK
6
CONTINUOUS
10
150.5
20
-82
11
152.5
21
-82
0
LINE
8
BLACK
6
CONTINUOUS
10
152.5
20
-82
11
152.5
21
-85
0
LINE
8
BLACK
6
CONTINUOUS
10
142.5
20
-85
11
140.5
21
-85
0
LINE
8
BLACK
6
CONTINUOUS
10
140.5
20
-85
11
140.5
21
-82
0
LINE
8
BLACK
6
CONTINUOUS
10
140.5
20
-82
11
142.5
21
-82
0
LINE
8
BLACK
6
CONTINUOUS
10
142.5
20
-82
11
142.5
21
-85
0
LINE
8
BLACK
6
CONTINUOUS
10
155.7
20
-85
11
153.7
21
-85
0
LINE
8
BLACK
6
CONTINUOUS
10
153.7
20
-85
11
153.7
21
-82
0
LINE
8
BLACK
6
CONTINUOUS
10
153.7
20
-82
11
155.7
21
-82
0
LINE
8
BLACK
6
CONTINUOUS
10
155.7
20
-82
11
155.7
21
-85
0
LINE
8
BLACK
6
CONTINUOUS
10
139.3
20
-85
11
137.3
21
-85
0
LINE
8
BLACK
6
CONTINUOUS
10
137.3
20
-85
11
137.3
21
-82
0
LINE
8
BLACK
6
CONTINUOUS
10
137.3
20
-82
11
139.3
21
-82
0
LINE
8
BLACK
6
CONTINUOUS
10
139.3
20
-82
11
139.3
21
-85
0
LINE
8
BLACK
6
CONTINUOUS
10
131.989
20
-84.0183
11
132.111
21
-84.0889
0
LINE
8
BLACK
6
CONTINUOUS
10
132.111
20
-84.0889
11
132.202
21
-84.1969
0
LINE
8
BLACK
6
CONTINUOUS
10
132.202
20
-84.1969
11
132.25
21
-84.3295
0
LINE
8
BLACK
6
CONTINUOUS
10
132.25
20
-84.3295
11
132.25
21
-84.4705
0
LINE
8
BLACK
6
CONTINUOUS
10
132.25
20
-84.4705
11
132.202
21
-84.6031
0
LINE
8
BLACK
6
CONTINUOUS
10
132.202
20
-84.6031
11
132.111
21
-84.7111
0
LINE
8
BLACK
6
CONTINUOUS
10
132.111
20
-84.7111
11
131.989
21
-84.7817
0
LINE
8
BLACK
6
CONTINUOUS
10
131.989
20
-84.7817
11
131.885
21
-84.8
0
LINE
8
BLACK
6
CONTINUOUS
10
131.885
20
-84.8
11
130.115
21
-84.8
0
LINE
8
BLACK
6
CONTINUOUS
10
130.115
20
-84.8
11
130.011
21
-84.7817
0
LINE
8
BLACK
6
CONTINUOUS
10
130.011
20
-84.7817
11
129.889
21
-84.7111
0
LINE
8
BLACK
6
CONTINUOUS
10
129.889
20
-84.7111
11
129.798
21
-84.6031
0
LINE
8
BLACK
6
CONTINUOUS
10
129.798
20
-84.6031
11
129.75
21
-84.4705
0
LINE
8
BLACK
6
CONTINUOUS
10
129.75
20
-84.4705
11
129.75
21
-84.3295
0
LINE
8
BLACK
6
CONTINUOUS
10
129.75
20
-84.3295
11
129.798
21
-84.1969
0
LINE
8
BLACK
6
CONTINUOUS
10
129.798
20
-84.1969
11
129.889
21
-84.0889
0
LINE
8
BLACK
6
CONTINUOUS
10
129.889
20
-84.0889
11
130.011
21
-84.0183
0
LINE
8
BLACK
6
CONTINUOUS
10
130.011
20
-84.0183
11
130.115
21
-84
0
LINE
8
BLACK
6
CONTINUOUS
10
130.115
20
-84
11
131.885
21
-84
0
LINE
8
BLACK
6
CONTINUOUS
10
131.885
20
-84
11
131.989
21
-84.0183
0
LINE
8
BLACK
6
CONTINUOUS
10
162.989
20
-84.0183
11
163.111
21
-84.0889
0
LINE
8
BLACK
6
CONTINUOUS
10
163.111
20
-84.0889
11
163.202
21
-84.1969
0
LINE
8
BLACK
6
CONTINUOUS
10
163.202
20
-84.1969
11
163.25
21
-84.3295
0
LINE
8
BLACK
6
CONTINUOUS
10
163.25
20
-84.3295
11
163.25
21
-84.4705
0
LINE
8
BLACK
6
CONTINUOUS
10
163.25
20
-84.4705
11
163.202
21
-84.6031
0
LINE
8
BLACK
6
CONTINUOUS
10
163.202
20
-84.6031
11
163.111
21
-84.7111
0
LINE
8
BLACK
6
CONTINUOUS
10
163.111
20
-84.7111
11
162.989
21
-84.7817
0
LINE
8
BLACK
6
CONTINUOUS
10
162.989
20
-84.7817
11
162.885
21
-84.8
0
LINE
8
BLACK
6
CONTINUOUS
10
162.885
20
-84.8
11
161.115
21
-84.8
0
LINE
8
BLACK
6
CONTINUOUS
10
161.115
20
-84.8
11
161.011
21
-84.7817
0
LINE
8
BLACK
6
CONTINUOUS
10
161.011
20
-84.7817
11
160.889
21
-84.7111
0
LINE
8
BLACK
6
CONTINUOUS
10
160.889
20
-84.7111
11
160.798
21
-84.6031
0
LINE
8
BLACK
6
CONTINUOUS
10
160.798
20
-84.6031
11
160.75
21
-84.4705
0
LINE
8
BLACK
6
CONTINUOUS
10
160.75
20
-84.4705
11
160.75
21
-84.3295
0
LINE
8
BLACK
6
CONTINUOUS
10
160.75
20
-84.3295
11
160.798
21
-84.1969
0
LINE
8
BLACK
6
CONTINUOUS
10
160.798
20
-84.1969
11
160.889
21
-84.0889
0
LINE
8
BLACK
6
CONTINUOUS
10
160.889
20
-84.0889
11
161.011
21
-84.0183
0
LINE
8
BLACK
6
CONTINUOUS
10
161.011
20
-84.0183
11
161.115
21
-84
0
LINE
8
BLACK
6
CONTINUOUS
10
161.115
20
-84
11
162.885
21
-84
0
LINE
8
BLACK
6
CONTINUOUS
10
162.885
20
-84
11
162.989
21
-84.0183
0
LINE
8
BLACK
6
CONTINUOUS
10
122.623
20
-83.8989
11
122.667
21
-83.9245
0
LINE
8
BLACK
6
CONTINUOUS
10
122.667
20
-83.9245
11
122.7
21
-83.9637
0
LINE
8
BLACK
6
CONTINUOUS
10
122.7
20
-83.9637
11
122.72
21
-84.0375
0
LINE
8
BLACK
6
CONTINUOUS
10
122.72
20
-84.0375
11
122.72
21
-84.3325
0
LINE
8
BLACK
6
CONTINUOUS
10
122.72
20
-84.3325
11
122.711
21
-84.3829
0
LINE
8
BLACK
6
CONTINUOUS
10
122.711
20
-84.3829
11
122.685
21
-84.4273
0
LINE
8
BLACK
6
CONTINUOUS
10
122.685
20
-84.4273
11
122.646
21
-84.4602
0
LINE
8
BLACK
6
CONTINUOUS
10
122.646
20
-84.4602
11
122.572
21
-84.48
0
LINE
8
BLACK
6
CONTINUOUS
10
122.572
20
-84.48
11
122.227
21
-84.48
0
LINE
8
BLACK
6
CONTINUOUS
10
122.227
20
-84.48
11
122.177
21
-84.4711
0
LINE
8
BLACK
6
CONTINUOUS
10
122.177
20
-84.4711
11
122.133
21
-84.4455
0
LINE
8
BLACK
6
CONTINUOUS
10
122.133
20
-84.4455
11
122.1
21
-84.4062
0
LINE
8
BLACK
6
CONTINUOUS
10
122.1
20
-84.4062
11
122.08
21
-84.3325
0
LINE
8
BLACK
6
CONTINUOUS
10
122.08
20
-84.3325
11
122.08
21
-84.0375
0
LINE
8
BLACK
6
CONTINUOUS
10
122.08
20
-84.0375
11
122.089
21
-83.9871
0
LINE
8
BLACK
6
CONTINUOUS
10
122.089
20
-83.9871
11
122.115
21
-83.9427
0
LINE
8
BLACK
6
CONTINUOUS
10
122.115
20
-83.9427
11
122.154
21
-83.9098
0
LINE
8
BLACK
6
CONTINUOUS
10
122.154
20
-83.9098
11
122.227
21
-83.89
0
LINE
8
BLACK
6
CONTINUOUS
10
122.227
20
-83.89
11
122.572
21
-83.89
0
LINE
8
BLACK
6
CONTINUOUS
10
122.572
20
-83.89
11
122.623
21
-83.8989
0
LINE
8
BLACK
6
CONTINUOUS
10
117.523
20
-83.8989
11
117.567
21
-83.9245
0
LINE
8
BLACK
6
CONTINUOUS
10
117.567
20
-83.9245
11
117.6
21
-83.9637
0
LINE
8
BLACK
6
CONTINUOUS
10
117.6
20
-83.9637
11
117.62
21
-84.0375
0
LINE
8
BLACK
6
CONTINUOUS
10
117.62
20
-84.0375
11
117.62
21
-84.3325
0
LINE
8
BLACK
6
CONTINUOUS
10
117.62
20
-84.3325
11
117.611
21
-84.3829
0
LINE
8
BLACK
6
CONTINUOUS
10
117.611
20
-84.3829
11
117.585
21
-84.4273
0
LINE
8
BLACK
6
CONTINUOUS
10
117.585
20
-84.4273
11
117.546
21
-84.4602
0
LINE
8
BLACK
6
CONTINUOUS
10
117.546
20
-84.4602
11
117.472
21
-84.48
0
LINE
8
BLACK
6
CONTINUOUS
10
117.472
20
-84.48
11
117.127
21
-84.48
0
LINE
8
BLACK
6
CONTINUOUS
10
117.127
20
-84.48
11
117.077
21
-84.4711
0
LINE
8
BLACK
6
CONTINUOUS
10
117.077
20
-84.4711
11
117.033
21
-84.4455
0
LINE
8
BLACK
6
CONTINUOUS
10
117.033
20
-84.4455
11
117
21
-84.4062
0
LINE
8
BLACK
6
CONTINUOUS
10
117
20
-84.4062
11
116.98
21
-84.3325
0
LINE
8
BLACK
6
CONTINUOUS
10
116.98
20
-84.3325
11
116.98
21
-84.0375
0
LINE
8
BLACK
6
CONTINUOUS
10
116.98
20
-84.0375
11
116.989
21
-83.9871
0
LINE
8
BLACK
6
CONTINUOUS
10
116.989
20
-83.9871
11
117.015
21
-83.9427
0
LINE
8
BLACK
6
CONTINUOUS
10
117.015
20
-83.9427
11
117.054
21
-83.9098
0
LINE
8
BLACK
6
CONTINUOUS
10
117.054
20
-83.9098
11
117.127
21
-83.89
0
LINE
8
BLACK
6
CONTINUOUS
10
117.127
20
-83.89
11
117.472
21
-83.89
0
LINE
8
BLACK
6
CONTINUOUS
10
117.472
20
-83.89
11
117.523
21
-83.8989
0
LINE
8
BLACK
6
CONTINUOUS
10
116.223
20
-83.8989
11
116.267
21
-83.9245
0
LINE
8
BLACK
6
CONTINUOUS
10
116.267
20
-83.9245
11
116.3
21
-83.9637
0
LINE
8
BLACK
6
CONTINUOUS
10
116.3
20
-83.9637
11
116.32
21
-84.0375
0
LINE
8
BLACK
6
CONTINUOUS
10
116.32
20
-84.0375
11
116.32
21
-84.3325
0
LINE
8
BLACK
6
CONTINUOUS
10
116.32
20
-84.3325
11
116.311
21
-84.3829
0
LINE
8
BLACK
6
CONTINUOUS
10
116.311
20
-84.3829
11
116.285
21
-84.4273
0
LINE
8
BLACK
6
CONTINUOUS
10
116.285
20
-84.4273
11
116.246
21
-84.4602
0
LINE
8
BLACK
6
CONTINUOUS
10
116.246
20
-84.4602
11
116.172
21
-84.48
0
LINE
8
BLACK
6
CONTINUOUS
10
116.172
20
-84.48
11
115.828
21
-84.48
0
LINE
8
BLACK
6
CONTINUOUS
10
115.828
20
-84.48
11
115.777
21
-84.4711
0
LINE
8
BLACK
6
CONTINUOUS
10
115.777
20
-84.4711
11
115.733
21
-84.4455
0
LINE
8
BLACK
6
CONTINUOUS
10
115.733
20
-84.4455
11
115.7
21
-84.4062
0
LINE
8
BLACK
6
CONTINUOUS
10
115.7
20
-84.4062
11
115.68
21
-84.3325
0
LINE
8
BLACK
6
CONTINUOUS
10
115.68
20
-84.3325
11
115.68
21
-84.0375
0
LINE
8
BLACK
6
CONTINUOUS
10
115.68
20
-84.0375
11
115.689
21
-83.9871
0
LINE
8
BLACK
6
CONTINUOUS
10
115.689
20
-83.9871
11
115.715
21
-83.9427
0
LINE
8
BLACK
6
CONTINUOUS
10
115.715
20
-83.9427
11
115.754
21
-83.9098
0
LINE
8
BLACK
6
CONTINUOUS
10
115.754
20
-83.9098
11
115.828
21
-83.89
0
LINE
8
BLACK
6
CONTINUOUS
10
115.828
20
-83.89
11
116.172
21
-83.89
0
LINE
8
BLACK
6
CONTINUOUS
10
116.172
20
-83.89
11
116.223
21
-83.8989
0
LINE
8
BLACK
6
CONTINUOUS
10
121.323
20
-83.8989
11
121.367
21
-83.9245
0
LINE
8
BLACK
6
CONTINUOUS
10
121.367
20
-83.9245
11
121.4
21
-83.9637
0
LINE
8
BLACK
6
CONTINUOUS
10
121.4
20
-83.9637
11
121.42
21
-84.0375
0
LINE
8
BLACK
6
CONTINUOUS
10
121.42
20
-84.0375
11
121.42
21
-84.3325
0
LINE
8
BLACK
6
CONTINUOUS
10
121.42
20
-84.3325
11
121.411
21
-84.3829
0
LINE
8
BLACK
6
CONTINUOUS
10
121.411
20
-84.3829
11
121.385
21
-84.4273
0
LINE
8
BLACK
6
CONTINUOUS
10
121.385
20
-84.4273
11
121.346
21
-84.4602
0
LINE
8
BLACK
6
CONTINUOUS
10
121.346
20
-84.4602
11
121.272
21
-84.48
0
LINE
8
BLACK
6
CONTINUOUS
10
121.272
20
-84.48
11
120.927
21
-84.48
0
LINE
8
BLACK
6
CONTINUOUS
10
120.927
20
-84.48
11
120.877
21
-84.4711
0
LINE
8
BLACK
6
CONTINUOUS
10
120.877
20
-84.4711
11
120.833
21
-84.4455
0
LINE
8
BLACK
6
CONTINUOUS
10
120.833
20
-84.4455
11
120.8
21
-84.4062
0
LINE
8
BLACK
6
CONTINUOUS
10
120.8
20
-84.4062
11
120.78
21
-84.3325
0
LINE
8
BLACK
6
CONTINUOUS
10
120.78
20
-84.3325
11
120.78
21
-84.0375
0
LINE
8
BLACK
6
CONTINUOUS
10
120.78
20
-84.0375
11
120.789
21
-83.9871
0
LINE
8
BLACK
6
CONTINUOUS
10
120.789
20
-83.9871
11
120.815
21
-83.9427
0
LINE
8
BLACK
6
CONTINUOUS
10
120.815
20
-83.9427
11
120.854
21
-83.9098
0
LINE
8
BLACK
6
CONTINUOUS
10
120.854
20
-83.9098
11
120.927
21
-83.89
0
LINE
8
BLACK
6
CONTINUOUS
10
120.927
20
-83.89
11
121.272
21
-83.89
0
LINE
8
BLACK
6
CONTINUOUS
10
121.272
20
-83.89
11
121.323
21
-83.8989
0
LINE
8
BLACK
6
CONTINUOUS
10
119.35
20
-84.425
11
119.05
21
-84.425
0
LINE
8
BLACK
6
CONTINUOUS
10
119.05
20
-84.425
11
119.05
21
-83.975
0
LINE
8
BLACK
6
CONTINUOUS
10
119.05
20
-83.975
11
119.35
21
-83.975
0
LINE
8
BLACK
6
CONTINUOUS
10
119.35
20
-83.975
11
119.35
21
-84.425
0
LINE
8
BLACK
6
CONTINUOUS
10
119.85
20
-84.425
11
119.55
21
-84.425
0
LINE
8
BLACK
6
CONTINUOUS
10
119.55
20
-84.425
11
119.55
21
-83.975
0
LINE
8
BLACK
6
CONTINUOUS
10
119.55
20
-83.975
11
119.85
21
-83.975
0
LINE
8
BLACK
6
CONTINUOUS
10
119.85
20
-83.975
11
119.85
21
-84.425
0
LINE
8
BLACK
6
CONTINUOUS
10
118.85
20
-84.425
11
118.55
21
-84.425
0
LINE
8
BLACK
6
CONTINUOUS
10
118.55
20
-84.425
11
118.55
21
-83.975
0
LINE
8
BLACK
6
CONTINUOUS
10
118.55
20
-83.975
11
118.85
21
-83.975
0
LINE
8
BLACK
6
CONTINUOUS
10
118.85
20
-83.975
11
118.85
21
-84.425
0
LINE
8
BLACK
6
CONTINUOUS
10
113.123
20
-83.2989
11
113.167
21
-83.3245
0
LINE
8
BLACK
6
CONTINUOUS
10
113.167
20
-83.3245
11
113.2
21
-83.3637
0
LINE
8
BLACK
6
CONTINUOUS
10
113.2
20
-83.3637
11
113.22
21
-83.4375
0
LINE
8
BLACK
6
CONTINUOUS
10
113.22
20
-83.4375
11
113.22
21
-83.7325
0
LINE
8
BLACK
6
CONTINUOUS
10
113.22
20
-83.7325
11
113.211
21
-83.7829
0
LINE
8
BLACK
6
CONTINUOUS
10
113.211
20
-83.7829
11
113.185
21
-83.8273
0
LINE
8
BLACK
6
CONTINUOUS
10
113.185
20
-83.8273
11
113.146
21
-83.8602
0
LINE
8
BLACK
6
CONTINUOUS
10
113.146
20
-83.8602
11
113.072
21
-83.88
0
LINE
8
BLACK
6
CONTINUOUS
10
113.072
20
-83.88
11
112.727
21
-83.88
0
LINE
8
BLACK
6
CONTINUOUS
10
112.727
20
-83.88
11
112.677
21
-83.8711
0
LINE
8
BLACK
6
CONTINUOUS
10
112.677
20
-83.8711
11
112.633
21
-83.8455
0
LINE
8
BLACK
6
CONTINUOUS
10
112.633
20
-83.8455
11
112.6
21
-83.8062
0
LINE
8
BLACK
6
CONTINUOUS
10
112.6
20
-83.8062
11
112.58
21
-83.7325
0
LINE
8
BLACK
6
CONTINUOUS
10
112.58
20
-83.7325
11
112.58
21
-83.4375
0
LINE
8
BLACK
6
CONTINUOUS
10
112.58
20
-83.4375
11
112.589
21
-83.3871
0
LINE
8
BLACK
6
CONTINUOUS
10
112.589
20
-83.3871
11
112.615
21
-83.3427
0
LINE
8
BLACK
6
CONTINUOUS
10
112.615
20
-83.3427
11
112.654
21
-83.3098
0
LINE
8
BLACK
6
CONTINUOUS
10
112.654
20
-83.3098
11
112.727
21
-83.29
0
LINE
8
BLACK
6
CONTINUOUS
10
112.727
20
-83.29
11
113.072
21
-83.29
0
LINE
8
BLACK
6
CONTINUOUS
10
113.072
20
-83.29
11
113.123
21
-83.2989
0
LINE
8
BLACK
6
CONTINUOUS
10
122.623
20
-82.9289
11
122.667
21
-82.9545
0
LINE
8
BLACK
6
CONTINUOUS
10
122.667
20
-82.9545
11
122.7
21
-82.9937
0
LINE
8
BLACK
6
CONTINUOUS
10
122.7
20
-82.9937
11
122.72
21
-83.0675
0
LINE
8
BLACK
6
CONTINUOUS
10
122.72
20
-83.0675
11
122.72
21
-83.3625
0
LINE
8
BLACK
6
CONTINUOUS
10
122.72
20
-83.3625
11
122.711
21
-83.4129
0
LINE
8
BLACK
6
CONTINUOUS
10
122.711
20
-83.4129
11
122.685
21
-83.4573
0
LINE
8
BLACK
6
CONTINUOUS
10
122.685
20
-83.4573
11
122.646
21
-83.4902
0
LINE
8
BLACK
6
CONTINUOUS
10
122.646
20
-83.4902
11
122.572
21
-83.51
0
LINE
8
BLACK
6
CONTINUOUS
10
122.572
20
-83.51
11
122.227
21
-83.51
0
LINE
8
BLACK
6
CONTINUOUS
10
122.227
20
-83.51
11
122.177
21
-83.5011
0
LINE
8
BLACK
6
CONTINUOUS
10
122.177
20
-83.5011
11
122.133
21
-83.4755
0
LINE
8
BLACK
6
CONTINUOUS
10
122.133
20
-83.4755
11
122.1
21
-83.4363
0
LINE
8
BLACK
6
CONTINUOUS
10
122.1
20
-83.4363
11
122.08
21
-83.3625
0
LINE
8
BLACK
6
CONTINUOUS
10
122.08
20
-83.3625
11
122.08
21
-83.0675
0
LINE
8
BLACK
6
CONTINUOUS
10
122.08
20
-83.0675
11
122.089
21
-83.0171
0
LINE
8
BLACK
6
CONTINUOUS
10
122.089
20
-83.0171
11
122.115
21
-82.9727
0
LINE
8
BLACK
6
CONTINUOUS
10
122.115
20
-82.9727
11
122.154
21
-82.9398
0
LINE
8
BLACK
6
CONTINUOUS
10
122.154
20
-82.9398
11
122.227
21
-82.92
0
LINE
8
BLACK
6
CONTINUOUS
10
122.227
20
-82.92
11
122.572
21
-82.92
0
LINE
8
BLACK
6
CONTINUOUS
10
122.572
20
-82.92
11
122.623
21
-82.9289
0
LINE
8
BLACK
6
CONTINUOUS
10
117.523
20
-82.9289
11
117.567
21
-82.9545
0
LINE
8
BLACK
6
CONTINUOUS
10
117.567
20
-82.9545
11
117.6
21
-82.9937
0
LINE
8
BLACK
6
CONTINUOUS
10
117.6
20
-82.9937
11
117.62
21
-83.0675
0
LINE
8
BLACK
6
CONTINUOUS
10
117.62
20
-83.0675
11
117.62
21
-83.3625
0
LINE
8
BLACK
6
CONTINUOUS
10
117.62
20
-83.3625
11
117.611
21
-83.4129
0
LINE
8
BLACK
6
CONTINUOUS
10
117.611
20
-83.4129
11
117.585
21
-83.4573
0
LINE
8
BLACK
6
CONTINUOUS
10
117.585
20
-83.4573
11
117.546
21
-83.4902
0
LINE
8
BLACK
6
CONTINUOUS
10
117.546
20
-83.4902
11
117.472
21
-83.51
0
LINE
8
BLACK
6
CONTINUOUS
10
117.472
20
-83.51
11
117.127
21
-83.51
0
LINE
8
BLACK
6
CONTINUOUS
10
117.127
20
-83.51
11
117.077
21
-83.5011
0
LINE
8
BLACK
6
CONTINUOUS
10
117.077
20
-83.5011
11
117.033
21
-83.4755
0
LINE
8
BLACK
6
CONTINUOUS
10
117.033
20
-83.4755
11
117
21
-83.4363
0
LINE
8
BLACK
6
CONTINUOUS
10
117
20
-83.4363
11
116.98
21
-83.3625
0
LINE
8
BLACK
6
CONTINUOUS
10
116.98
20
-83.3625
11
116.98
21
-83.0675
0
LINE
8
BLACK
6
CONTINUOUS
10
116.98
20
-83.0675
11
116.989
21
-83.0171
0
LINE
8
BLACK
6
CONTINUOUS
10
116.989
20
-83.0171
11
117.015
21
-82.9727
0
LINE
8
BLACK
6
CONTINUOUS
10
117.015
20
-82.9727
11
117.054
21
-82.9398
0
LINE
8
BLACK
6
CONTINUOUS
10
117.054
20
-82.9398
11
117.127
21
-82.92
0
LINE
8
BLACK
6
CONTINUOUS
10
117.127
20
-82.92
11
117.472
21
-82.92
0
LINE
8
BLACK
6
CONTINUOUS
10
117.472
20
-82.92
11
117.523
21
-82.9289
0
LINE
8
BLACK
6
CONTINUOUS
10
121.323
20
-82.9289
11
121.367
21
-82.9545
0
LINE
8
BLACK
6
CONTINUOUS
10
121.367
20
-82.9545
11
121.4
21
-82.9937
0
LINE
8
BLACK
6
CONTINUOUS
10
121.4
20
-82.9937
11
121.42
21
-83.0675
0
LINE
8
BLACK
6
CONTINUOUS
10
121.42
20
-83.0675
11
121.42
21
-83.3625
0
LINE
8
BLACK
6
CONTINUOUS
10
121.42
20
-83.3625
11
121.411
21
-83.4129
0
LINE
8
BLACK
6
CONTINUOUS
10
121.411
20
-83.4129
11
121.385
21
-83.4573
0
LINE
8
BLACK
6
CONTINUOUS
10
121.385
20
-83.4573
11
121.346
21
-83.4902
0
LINE
8
BLACK
6
CONTINUOUS
10
121.346
20
-83.4902
11
121.272
21
-83.51
0
LINE
8
BLACK
6
CONTINUOUS
10
121.272
20
-83.51
11
120.927
21
-83.51
0
LINE
8
BLACK
6
CONTINUOUS
10
120.927
20
-83.51
11
120.877
21
-83.5011
0
LINE
8
BLACK
6
CONTINUOUS
10
120.877
20
-83.5011
11
120.833
21
-83.4755
0
LINE
8
BLACK
6
CONTINUOUS
10
120.833
20
-83.4755
11
120.8
21
-83.4363
0
LINE
8
BLACK
6
CONTINUOUS
10
120.8
20
-83.4363
11
120.78
21
-83.3625
0
LINE
8
BLACK
6
CONTINUOUS
10
120.78
20
-83.3625
11
120.78
21
-83.0675
0
LINE
8
BLACK
6
CONTINUOUS
10
120.78
20
-83.0675
11
120.789
21
-83.0171
0
LINE
8
BLACK
6
CONTINUOUS
10
120.789
20
-83.0171
11
120.815
21
-82.9727
0
LINE
8
BLACK
6
CONTINUOUS
10
120.815
20
-82.9727
11
120.854
21
-82.9398
0
LINE
8
BLACK
6
CONTINUOUS
10
120.854
20
-82.9398
11
120.927
21
-82.92
0
LINE
8
BLACK
6
CONTINUOUS
10
120.927
20
-82.92
11
121.272
21
-82.92
0
LINE
8
BLACK
6
CONTINUOUS
10
121.272
20
-82.92
11
121.323
21
-82.9289
0
LINE
8
BLACK
6
CONTINUOUS
10
116.223
20
-82.9289
11
116.267
21
-82.9545
0
LINE
8
BLACK
6
CONTINUOUS
10
116.267
20
-82.9545
11
116.3
21
-82.9937
0
LINE
8
BLACK
6
CONTINUOUS
10
116.3
20
-82.9937
11
116.32
21
-83.0675
0
LINE
8
BLACK
6
CONTINUOUS
10
116.32
20
-83.0675
11
116.32
21
-83.3625
0
LINE
8
BLACK
6
CONTINUOUS
10
116.32
20
-83.3625
11
116.311
21
-83.4129
0
LINE
8
BLACK
6
CONTINUOUS
10
116.311
20
-83.4129
11
116.285
21
-83.4573
0
LINE
8
BLACK
6
CONTINUOUS
10
116.285
20
-83.4573
11
116.246
21
-83.4902
0
LINE
8
BLACK
6
CONTINUOUS
10
116.246
20
-83.4902
11
116.172
21
-83.51
0
LINE
8
BLACK
6
CONTINUOUS
10
116.172
20
-83.51
11
115.828
21
-83.51
0
LINE
8
BLACK
6
CONTINUOUS
10
115.828
20
-83.51
11
115.777
21
-83.5011
0
LINE
8
BLACK
6
CONTINUOUS
10
115.777
20
-83.5011
11
115.733
21
-83.4755
0
LINE
8
BLACK
6
CONTINUOUS
10
115.733
20
-83.4755
11
115.7
21
-83.4363
0
LINE
8
BLACK
6
CONTINUOUS
10
115.7
20
-83.4363
11
115.68
21
-83.3625
0
LINE
8
BLACK
6
CONTINUOUS
10
115.68
20
-83.3625
11
115.68
21
-83.0675
0
LINE
8
BLACK
6
CONTINUOUS
10
115.68
20
-83.0675
11
115.689
21
-83.0171
0
LINE
8
BLACK
6
CONTINUOUS
10
115.689
20
-83.0171
11
115.715
21
-82.9727
0
LINE
8
BLACK
6
CONTINUOUS
10
115.715
20
-82.9727
11
115.754
21
-82.9398
0
LINE
8
BLACK
6
CONTINUOUS
10
115.754
20
-82.9398
11
115.828
21
-82.92
0
LINE
8
BLACK
6
CONTINUOUS
10
115.828
20
-82.92
11
116.172
21
-82.92
0
LINE
8
BLACK
6
CONTINUOUS
10
116.172
20
-82.92
11
116.223
21
-82.9289
0
LINE
8
BLACK
6
CONTINUOUS
10
131.989
20
-82.7183
11
132.111
21
-82.7889
0
LINE
8
BLACK
6
CONTINUOUS
10
132.111
20
-82.7889
11
132.202
21
-82.8969
0
LINE
8
BLACK
6
CONTINUOUS
10
132.202
20
-82.8969
11
132.25
21
-83.0295
0
LINE
8
BLACK
6
CONTINUOUS
10
132.25
20
-83.0295
11
132.25
21
-83.1705
0
LINE
8
BLACK
6
CONTINUOUS
10
132.25
20
-83.1705
11
132.202
21
-83.3031
0
LINE
8
BLACK
6
CONTINUOUS
10
132.202
20
-83.3031
11
132.111
21
-83.4111
0
LINE
8
BLACK
6
CONTINUOUS
10
132.111
20
-83.4111
11
131.989
21
-83.4817
0
LINE
8
BLACK
6
CONTINUOUS
10
131.989
20
-83.4817
11
131.885
21
-83.5
0
LINE
8
BLACK
6
CONTINUOUS
10
131.885
20
-83.5
11
130.115
21
-83.5
0
LINE
8
BLACK
6
CONTINUOUS
10
130.115
20
-83.5
11
130.011
21
-83.4817
0
LINE
8
BLACK
6
CONTINUOUS
10
130.011
20
-83.4817
11
129.889
21
-83.4111
0
LINE
8
BLACK
6
CONTINUOUS
10
129.889
20
-83.4111
11
129.798
21
-83.3031
0
LINE
8
BLACK
6
CONTINUOUS
10
129.798
20
-83.3031
11
129.75
21
-83.1705
0
LINE
8
BLACK
6
CONTINUOUS
10
129.75
20
-83.1705
11
129.75
21
-83.0295
0
LINE
8
BLACK
6
CONTINUOUS
10
129.75
20
-83.0295
11
129.798
21
-82.8969
0
LINE
8
BLACK
6
CONTINUOUS
10
129.798
20
-82.8969
11
129.889
21
-82.7889
0
LINE
8
BLACK
6
CONTINUOUS
10
129.889
20
-82.7889
11
130.011
21
-82.7183
0
LINE
8
BLACK
6
CONTINUOUS
10
130.011
20
-82.7183
11
130.115
21
-82.7
0
LINE
8
BLACK
6
CONTINUOUS
10
130.115
20
-82.7
11
131.885
21
-82.7
0
LINE
8
BLACK
6
CONTINUOUS
10
131.885
20
-82.7
11
131.989
21
-82.7183
0
LINE
8
BLACK
6
CONTINUOUS
10
162.989
20
-82.7183
11
163.111
21
-82.7889
0
LINE
8
BLACK
6
CONTINUOUS
10
163.111
20
-82.7889
11
163.202
21
-82.8969
0
LINE
8
BLACK
6
CONTINUOUS
10
163.202
20
-82.8969
11
163.25
21
-83.0295
0
LINE
8
BLACK
6
CONTINUOUS
10
163.25
20
-83.0295
11
163.25
21
-83.1705
0
LINE
8
BLACK
6
CONTINUOUS
10
163.25
20
-83.1705
11
163.202
21
-83.3031
0
LINE
8
BLACK
6
CONTINUOUS
10
163.202
20
-83.3031
11
163.111
21
-83.4111
0
LINE
8
BLACK
6
CONTINUOUS
10
163.111
20
-83.4111
11
162.989
21
-83.4817
0
LINE
8
BLACK
6
CONTINUOUS
10
162.989
20
-83.4817
11
162.885
21
-83.5
0
LINE
8
BLACK
6
CONTINUOUS
10
162.885
20
-83.5
11
161.115
21
-83.5
0
LINE
8
BLACK
6
CONTINUOUS
10
161.115
20
-83.5
11
161.011
21
-83.4817
0
LINE
8
BLACK
6
CONTINUOUS
10
161.011
20
-83.4817
11
160.889
21
-83.4111
0
LINE
8
BLACK
6
CONTINUOUS
10
160.889
20
-83.4111
11
160.798
21
-83.3031
0
LINE
8
BLACK
6
CONTINUOUS
10
160.798
20
-83.3031
11
160.75
21
-83.1705
0
LINE
8
BLACK
6
CONTINUOUS
10
160.75
20
-83.1705
11
160.75
21
-83.0295
0
LINE
8
BLACK
6
CONTINUOUS
10
160.75
20
-83.0295
11
160.798
21
-82.8969
0
LINE
8
BLACK
6
CONTINUOUS
10
160.798
20
-82.8969
11
160.889
21
-82.7889
0
LINE
8
BLACK
6
CONTINUOUS
10
160.889
20
-82.7889
11
161.011
21
-82.7183
0
LINE
8
BLACK
6
CONTINUOUS
10
161.011
20
-82.7183
11
161.115
21
-82.7
0
LINE
8
BLACK
6
CONTINUOUS
10
161.115
20
-82.7
11
162.885
21
-82.7
0
LINE
8
BLACK
6
CONTINUOUS
10
162.885
20
-82.7
11
162.989
21
-82.7183
0
LINE
8
BLACK
6
CONTINUOUS
10
111.45
20
-83.05
11
110.35
21
-83.05
0
LINE
8
BLACK
6
CONTINUOUS
10
110.35
20
-83.05
11
110.35
21
-81.95
0
LINE
8
BLACK
6
CONTINUOUS
10
110.35
20
-81.95
11
111.45
21
-81.95
0
LINE
8
BLACK
6
CONTINUOUS
10
111.45
20
-81.95
11
111.45
21
-83.05
0
LINE
8
BLACK
6
CONTINUOUS
10
118.85
20
-83.025
11
118.55
21
-83.025
0
LINE
8
BLACK
6
CONTINUOUS
10
118.55
20
-83.025
11
118.55
21
-82.575
0
LINE
8
BLACK
6
CONTINUOUS
10
118.55
20
-82.575
11
118.85
21
-82.575
0
LINE
8
BLACK
6
CONTINUOUS
10
118.85
20
-82.575
11
118.85
21
-83.025
0
LINE
8
BLACK
6
CONTINUOUS
10
119.85
20
-83.025
11
119.55
21
-83.025
0
LINE
8
BLACK
6
CONTINUOUS
10
119.55
20
-83.025
11
119.55
21
-82.575
0
LINE
8
BLACK
6
CONTINUOUS
10
119.55
20
-82.575
11
119.85
21
-82.575
0
LINE
8
BLACK
6
CONTINUOUS
10
119.85
20
-82.575
11
119.85
21
-83.025
0
LINE
8
BLACK
6
CONTINUOUS
10
113.123
20
-82.3289
11
113.167
21
-82.3545
0
LINE
8
BLACK
6
CONTINUOUS
10
113.167
20
-82.3545
11
113.2
21
-82.3937
0
LINE
8
BLACK
6
CONTINUOUS
10
113.2
20
-82.3937
11
113.22
21
-82.4675
0
LINE
8
BLACK
6
CONTINUOUS
10
113.22
20
-82.4675
11
113.22
21
-82.7625
0
LINE
8
BLACK
6
CONTINUOUS
10
113.22
20
-82.7625
11
113.211
21
-82.8129
0
LINE
8
BLACK
6
CONTINUOUS
10
113.211
20
-82.8129
11
113.185
21
-82.8573
0
LINE
8
BLACK
6
CONTINUOUS
10
113.185
20
-82.8573
11
113.146
21
-82.8902
0
LINE
8
BLACK
6
CONTINUOUS
10
113.146
20
-82.8902
11
113.072
21
-82.91
0
LINE
8
BLACK
6
CONTINUOUS
10
113.072
20
-82.91
11
112.727
21
-82.91
0
LINE
8
BLACK
6
CONTINUOUS
10
112.727
20
-82.91
11
112.677
21
-82.9011
0
LINE
8
BLACK
6
CONTINUOUS
10
112.677
20
-82.9011
11
112.633
21
-82.8755
0
LINE
8
BLACK
6
CONTINUOUS
10
112.633
20
-82.8755
11
112.6
21
-82.8362
0
LINE
8
BLACK
6
CONTINUOUS
10
112.6
20
-82.8362
11
112.58
21
-82.7625
0
LINE
8
BLACK
6
CONTINUOUS
10
112.58
20
-82.7625
11
112.58
21
-82.4675
0
LINE
8
BLACK
6
CONTINUOUS
10
112.58
20
-82.4675
11
112.589
21
-82.4171
0
LINE
8
BLACK
6
CONTINUOUS
10
112.589
20
-82.4171
11
112.615
21
-82.3727
0
LINE
8
BLACK
6
CONTINUOUS
10
112.615
20
-82.3727
11
112.654
21
-82.3398
0
LINE
8
BLACK
6
CONTINUOUS
10
112.654
20
-82.3398
11
112.727
21
-82.32
0
LINE
8
BLACK
6
CONTINUOUS
10
112.727
20
-82.32
11
113.072
21
-82.32
0
LINE
8
BLACK
6
CONTINUOUS
10
113.072
20
-82.32
11
113.123
21
-82.3289
0
LINE
8
BLACK
6
CONTINUOUS
10
116.223
20
-81.9139
11
116.267
21
-81.9395
0
LINE
8
BLACK
6
CONTINUOUS
10
116.267
20
-81.9395
11
116.3
21
-81.9787
0
LINE
8
BLACK
6
CONTINUOUS
10
116.3
20
-81.9787
11
116.32
21
-82.0525
0
LINE
8
BLACK
6
CONTINUOUS
10
116.32
20
-82.0525
11
116.32
21
-82.3475
0
LINE
8
BLACK
6
CONTINUOUS
10
116.32
20
-82.3475
11
116.311
21
-82.3979
0
LINE
8
BLACK
6
CONTINUOUS
10
116.311
20
-82.3979
11
116.285
21
-82.4423
0
LINE
8
BLACK
6
CONTINUOUS
10
116.285
20
-82.4423
11
116.246
21
-82.4752
0
LINE
8
BLACK
6
CONTINUOUS
10
116.246
20
-82.4752
11
116.172
21
-82.495
0
LINE
8
BLACK
6
CONTINUOUS
10
116.172
20
-82.495
11
115.828
21
-82.495
0
LINE
8
BLACK
6
CONTINUOUS
10
115.828
20
-82.495
11
115.777
21
-82.4861
0
LINE
8
BLACK
6
CONTINUOUS
10
115.777
20
-82.4861
11
115.733
21
-82.4605
0
LINE
8
BLACK
6
CONTINUOUS
10
115.733
20
-82.4605
11
115.7
21
-82.4213
0
LINE
8
BLACK
6
CONTINUOUS
10
115.7
20
-82.4213
11
115.68
21
-82.3475
0
LINE
8
BLACK
6
CONTINUOUS
10
115.68
20
-82.3475
11
115.68
21
-82.0525
0
LINE
8
BLACK
6
CONTINUOUS
10
115.68
20
-82.0525
11
115.689
21
-82.0021
0
LINE
8
BLACK
6
CONTINUOUS
10
115.689
20
-82.0021
11
115.715
21
-81.9577
0
LINE
8
BLACK
6
CONTINUOUS
10
115.715
20
-81.9577
11
115.754
21
-81.9248
0
LINE
8
BLACK
6
CONTINUOUS
10
115.754
20
-81.9248
11
115.828
21
-81.905
0
LINE
8
BLACK
6
CONTINUOUS
10
115.828
20
-81.905
11
116.172
21
-81.905
0
LINE
8
BLACK
6
CONTINUOUS
10
116.172
20
-81.905
11
116.223
21
-81.9139
0
LINE
8
BLACK
6
CONTINUOUS
10
131.989
20
-81.4183
11
132.111
21
-81.4889
0
LINE
8
BLACK
6
CONTINUOUS
10
132.111
20
-81.4889
11
132.202
21
-81.5969
0
LINE
8
BLACK
6
CONTINUOUS
10
132.202
20
-81.5969
11
132.25
21
-81.7295
0
LINE
8
BLACK
6
CONTINUOUS
10
132.25
20
-81.7295
11
132.25
21
-81.8705
0
LINE
8
BLACK
6
CONTINUOUS
10
132.25
20
-81.8705
11
132.202
21
-82.0031
0
LINE
8
BLACK
6
CONTINUOUS
10
132.202
20
-82.0031
11
132.111
21
-82.1111
0
LINE
8
BLACK
6
CONTINUOUS
10
132.111
20
-82.1111
11
131.989
21
-82.1817
0
LINE
8
BLACK
6
CONTINUOUS
10
131.989
20
-82.1817
11
131.885
21
-82.2
0
LINE
8
BLACK
6
CONTINUOUS
10
131.885
20
-82.2
11
130.115
21
-82.2
0
LINE
8
BLACK
6
CONTINUOUS
10
130.115
20
-82.2
11
130.011
21
-82.1817
0
LINE
8
BLACK
6
CONTINUOUS
10
130.011
20
-82.1817
11
129.889
21
-82.1111
0
LINE
8
BLACK
6
CONTINUOUS
10
129.889
20
-82.1111
11
129.798
21
-82.0031
0
LINE
8
BLACK
6
CONTINUOUS
10
129.798
20
-82.0031
11
129.75
21
-81.8705
0
LINE
8
BLACK
6
CONTINUOUS
10
129.75
20
-81.8705
11
129.75
21
-81.7295
0
LINE
8
BLACK
6
CONTINUOUS
10
129.75
20
-81.7295
11
129.798
21
-81.5969
0
LINE
8
BLACK
6
CONTINUOUS
10
129.798
20
-81.5969
11
129.889
21
-81.4889
0
LINE
8
BLACK
6
CONTINUOUS
10
129.889
20
-81.4889
11
130.011
21
-81.4183
0
LINE
8
BLACK
6
CONTINUOUS
10
130.011
20
-81.4183
11
130.115
21
-81.4
0
LINE
8
BLACK
6
CONTINUOUS
10
130.115
20
-81.4
11
131.885
21
-81.4
0
LINE
8
BLACK
6
CONTINUOUS
10
131.885
20
-81.4
11
131.989
21
-81.4183
0
LINE
8
BLACK
6
CONTINUOUS
10
162.989
20
-81.4183
11
163.111
21
-81.4889
0
LINE
8
BLACK
6
CONTINUOUS
10
163.111
20
-81.4889
11
163.202
21
-81.5969
0
LINE
8
BLACK
6
CONTINUOUS
10
163.202
20
-81.5969
11
163.25
21
-81.7295
0
LINE
8
BLACK
6
CONTINUOUS
10
163.25
20
-81.7295
11
163.25
21
-81.8705
0
LINE
8
BLACK
6
CONTINUOUS
10
163.25
20
-81.8705
11
163.202
21
-82.0031
0
LINE
8
BLACK
6
CONTINUOUS
10
163.202
20
-82.0031
11
163.111
21
-82.1111
0
LINE
8
BLACK
6
CONTINUOUS
10
163.111
20
-82.1111
11
162.989
21
-82.1817
0
LINE
8
BLACK
6
CONTINUOUS
10
162.989
20
-82.1817
11
162.885
21
-82.2
0
LINE
8
BLACK
6
CONTINUOUS
10
162.885
20
-82.2
11
161.115
21
-82.2
0
LINE
8
BLACK
6
CONTINUOUS
10
161.115
20
-82.2
11
161.011
21
-82.1817
0
LINE
8
BLACK
6
CONTINUOUS
10
161.011
20
-82.1817
11
160.889
21
-82.1111
0
LINE
8
BLACK
6
CONTINUOUS
10
160.889
20
-82.1111
11
160.798
21
-82.0031
0
LINE
8
BLACK
6
CONTINUOUS
10
160.798
20
-82.0031
11
160.75
21
-81.8705
0
LINE
8
BLACK
6
CONTINUOUS
10
160.75
20
-81.8705
11
160.75
21
-81.7295
0
LINE
8
BLACK
6
CONTINUOUS
10
160.75
20
-81.7295
11
160.798
21
-81.5969
0
LINE
8
BLACK
6
CONTINUOUS
10
160.798
20
-81.5969
11
160.889
21
-81.4889
0
LINE
8
BLACK
6
CONTINUOUS
10
160.889
20
-81.4889
11
161.011
21
-81.4183
0
LINE
8
BLACK
6
CONTINUOUS
10
161.011
20
-81.4183
11
161.115
21
-81.4
0
LINE
8
BLACK
6
CONTINUOUS
10
161.115
20
-81.4
11
162.885
21
-81.4
0
LINE
8
BLACK
6
CONTINUOUS
10
162.885
20
-81.4
11
162.989
21
-81.4183
0
LINE
8
BLACK
6
CONTINUOUS
10
116.223
20
-80.9439
11
116.267
21
-80.9695
0
LINE
8
BLACK
6
CONTINUOUS
10
116.267
20
-80.9695
11
116.3
21
-81.0087
0
LINE
8
BLACK
6
CONTINUOUS
10
116.3
20
-81.0087
11
116.32
21
-81.0825
0
LINE
8
BLACK
6
CONTINUOUS
10
116.32
20
-81.0825
11
116.32
21
-81.3775
0
LINE
8
BLACK
6
CONTINUOUS
10
116.32
20
-81.3775
11
116.311
21
-81.4279
0
LINE
8
BLACK
6
CONTINUOUS
10
116.311
20
-81.4279
11
116.285
21
-81.4723
0
LINE
8
BLACK
6
CONTINUOUS
10
116.285
20
-81.4723
11
116.246
21
-81.5052
0
LINE
8
BLACK
6
CONTINUOUS
10
116.246
20
-81.5052
11
116.172
21
-81.525
0
LINE
8
BLACK
6
CONTINUOUS
10
116.172
20
-81.525
11
115.828
21
-81.525
0
LINE
8
BLACK
6
CONTINUOUS
10
115.828
20
-81.525
11
115.777
21
-81.5161
0
LINE
8
BLACK
6
CONTINUOUS
10
115.777
20
-81.5161
11
115.733
21
-81.4905
0
LINE
8
BLACK
6
CONTINUOUS
10
115.733
20
-81.4905
11
115.7
21
-81.4513
0
LINE
8
BLACK
6
CONTINUOUS
10
115.7
20
-81.4513
11
115.68
21
-81.3775
0
LINE
8
BLACK
6
CONTINUOUS
10
115.68
20
-81.3775
11
115.68
21
-81.0825
0
LINE
8
BLACK
6
CONTINUOUS
10
115.68
20
-81.0825
11
115.689
21
-81.0321
0
LINE
8
BLACK
6
CONTINUOUS
10
115.689
20
-81.0321
11
115.715
21
-80.9877
0
LINE
8
BLACK
6
CONTINUOUS
10
115.715
20
-80.9877
11
115.754
21
-80.9548
0
LINE
8
BLACK
6
CONTINUOUS
10
115.754
20
-80.9548
11
115.828
21
-80.935
0
LINE
8
BLACK
6
CONTINUOUS
10
115.828
20
-80.935
11
116.172
21
-80.935
0
LINE
8
BLACK
6
CONTINUOUS
10
116.172
20
-80.935
11
116.223
21
-80.9439
0
LINE
8
BLACK
6
CONTINUOUS
10
119.113
20
-80.8889
11
119.157
21
-80.9145
0
LINE
8
BLACK
6
CONTINUOUS
10
119.157
20
-80.9145
11
119.19
21
-80.9537
0
LINE
8
BLACK
6
CONTINUOUS
10
119.19
20
-80.9537
11
119.21
21
-81.0275
0
LINE
8
BLACK
6
CONTINUOUS
10
119.21
20
-81.0275
11
119.21
21
-81.3725
0
LINE
8
BLACK
6
CONTINUOUS
10
119.21
20
-81.3725
11
119.201
21
-81.4229
0
LINE
8
BLACK
6
CONTINUOUS
10
119.201
20
-81.4229
11
119.175
21
-81.4673
0
LINE
8
BLACK
6
CONTINUOUS
10
119.175
20
-81.4673
11
119.136
21
-81.5002
0
LINE
8
BLACK
6
CONTINUOUS
10
119.136
20
-81.5002
11
119.062
21
-81.52
0
LINE
8
BLACK
6
CONTINUOUS
10
119.062
20
-81.52
11
118.767
21
-81.52
0
LINE
8
BLACK
6
CONTINUOUS
10
118.767
20
-81.52
11
118.717
21
-81.5111
0
LINE
8
BLACK
6
CONTINUOUS
10
118.717
20
-81.5111
11
118.673
21
-81.4855
0
LINE
8
BLACK
6
CONTINUOUS
10
118.673
20
-81.4855
11
118.64
21
-81.4462
0
LINE
8
BLACK
6
CONTINUOUS
10
118.64
20
-81.4462
11
118.62
21
-81.3725
0
LINE
8
BLACK
6
CONTINUOUS
10
118.62
20
-81.3725
11
118.62
21
-81.0275
0
LINE
8
BLACK
6
CONTINUOUS
10
118.62
20
-81.0275
11
118.629
21
-80.9771
0
LINE
8
BLACK
6
CONTINUOUS
10
118.629
20
-80.9771
11
118.655
21
-80.9327
0
LINE
8
BLACK
6
CONTINUOUS
10
118.655
20
-80.9327
11
118.694
21
-80.8998
0
LINE
8
BLACK
6
CONTINUOUS
10
118.694
20
-80.8998
11
118.767
21
-80.88
0
LINE
8
BLACK
6
CONTINUOUS
10
118.767
20
-80.88
11
119.062
21
-80.88
0
LINE
8
BLACK
6
CONTINUOUS
10
119.062
20
-80.88
11
119.113
21
-80.8889
0
LINE
8
BLACK
6
CONTINUOUS
10
120.083
20
-80.8889
11
120.127
21
-80.9145
0
LINE
8
BLACK
6
CONTINUOUS
10
120.127
20
-80.9145
11
120.16
21
-80.9537
0
LINE
8
BLACK
6
CONTINUOUS
10
120.16
20
-80.9537
11
120.18
21
-81.0275
0
LINE
8
BLACK
6
CONTINUOUS
10
120.18
20
-81.0275
11
120.18
21
-81.3725
0
LINE
8
BLACK
6
CONTINUOUS
10
120.18
20
-81.3725
11
120.171
21
-81.4229
0
LINE
8
BLACK
6
CONTINUOUS
10
120.171
20
-81.4229
11
120.145
21
-81.4673
0
LINE
8
BLACK
6
CONTINUOUS
10
120.145
20
-81.4673
11
120.106
21
-81.5002
0
LINE
8
BLACK
6
CONTINUOUS
10
120.106
20
-81.5002
11
120.032
21
-81.52
0
LINE
8
BLACK
6
CONTINUOUS
10
120.032
20
-81.52
11
119.737
21
-81.52
0
LINE
8
BLACK
6
CONTINUOUS
10
119.737
20
-81.52
11
119.687
21
-81.5111
0
LINE
8
BLACK
6
CONTINUOUS
10
119.687
20
-81.5111
11
119.643
21
-81.4855
0
LINE
8
BLACK
6
CONTINUOUS
10
119.643
20
-81.4855
11
119.61
21
-81.4462
0
LINE
8
BLACK
6
CONTINUOUS
10
119.61
20
-81.4462
11
119.59
21
-81.3725
0
LINE
8
BLACK
6
CONTINUOUS
10
119.59
20
-81.3725
11
119.59
21
-81.0275
0
LINE
8
BLACK
6
CONTINUOUS
10
119.59
20
-81.0275
11
119.599
21
-80.9771
0
LINE
8
BLACK
6
CONTINUOUS
10
119.599
20
-80.9771
11
119.625
21
-80.9327
0
LINE
8
BLACK
6
CONTINUOUS
10
119.625
20
-80.9327
11
119.664
21
-80.8998
0
LINE
8
BLACK
6
CONTINUOUS
10
119.664
20
-80.8998
11
119.737
21
-80.88
0
LINE
8
BLACK
6
CONTINUOUS
10
119.737
20
-80.88
11
120.032
21
-80.88
0
LINE
8
BLACK
6
CONTINUOUS
10
120.032
20
-80.88
11
120.083
21
-80.8889
0
LINE
8
BLACK
6
CONTINUOUS
10
121.013
20
-80.8889
11
121.057
21
-80.9145
0
LINE
8
BLACK
6
CONTINUOUS
10
121.057
20
-80.9145
11
121.09
21
-80.9537
0
LINE
8
BLACK
6
CONTINUOUS
10
121.09
20
-80.9537
11
121.11
21
-81.0275
0
LINE
8
BLACK
6
CONTINUOUS
10
121.11
20
-81.0275
11
121.11
21
-81.3725
0
LINE
8
BLACK
6
CONTINUOUS
10
121.11
20
-81.3725
11
121.101
21
-81.4229
0
LINE
8
BLACK
6
CONTINUOUS
10
121.101
20
-81.4229
11
121.075
21
-81.4673
0
LINE
8
BLACK
6
CONTINUOUS
10
121.075
20
-81.4673
11
121.036
21
-81.5002
0
LINE
8
BLACK
6
CONTINUOUS
10
121.036
20
-81.5002
11
120.962
21
-81.52
0
LINE
8
BLACK
6
CONTINUOUS
10
120.962
20
-81.52
11
120.667
21
-81.52
0
LINE
8
BLACK
6
CONTINUOUS
10
120.667
20
-81.52
11
120.617
21
-81.5111
0
LINE
8
BLACK
6
CONTINUOUS
10
120.617
20
-81.5111
11
120.573
21
-81.4855
0
LINE
8
BLACK
6
CONTINUOUS
10
120.573
20
-81.4855
11
120.54
21
-81.4462
0
LINE
8
BLACK
6
CONTINUOUS
10
120.54
20
-81.4462
11
120.52
21
-81.3725
0
LINE
8
BLACK
6
CONTINUOUS
10
120.52
20
-81.3725
11
120.52
21
-81.0275
0
LINE
8
BLACK
6
CONTINUOUS
10
120.52
20
-81.0275
11
120.529
21
-80.9771
0
LINE
8
BLACK
6
CONTINUOUS
10
120.529
20
-80.9771
11
120.555
21
-80.9327
0
LINE
8
BLACK
6
CONTINUOUS
10
120.555
20
-80.9327
11
120.594
21
-80.8998
0
LINE
8
BLACK
6
CONTINUOUS
10
120.594
20
-80.8998
11
120.667
21
-80.88
0
LINE
8
BLACK
6
CONTINUOUS
10
120.667
20
-80.88
11
120.962
21
-80.88
0
LINE
8
BLACK
6
CONTINUOUS
10
120.962
20
-80.88
11
121.013
21
-80.8889
0
LINE
8
BLACK
6
CONTINUOUS
10
121.983
20
-80.8889
11
122.027
21
-80.9145
0
LINE
8
BLACK
6
CONTINUOUS
10
122.027
20
-80.9145
11
122.06
21
-80.9537
0
LINE
8
BLACK
6
CONTINUOUS
10
122.06
20
-80.9537
11
122.08
21
-81.0275
0
LINE
8
BLACK
6
CONTINUOUS
10
122.08
20
-81.0275
11
122.08
21
-81.3725
0
LINE
8
BLACK
6
CONTINUOUS
10
122.08
20
-81.3725
11
122.071
21
-81.4229
0
LINE
8
BLACK
6
CONTINUOUS
10
122.071
20
-81.4229
11
122.045
21
-81.4673
0
LINE
8
BLACK
6
CONTINUOUS
10
122.045
20
-81.4673
11
122.006
21
-81.5002
0
LINE
8
BLACK
6
CONTINUOUS
10
122.006
20
-81.5002
11
121.932
21
-81.52
0
LINE
8
BLACK
6
CONTINUOUS
10
121.932
20
-81.52
11
121.637
21
-81.52
0
LINE
8
BLACK
6
CONTINUOUS
10
121.637
20
-81.52
11
121.587
21
-81.5111
0
LINE
8
BLACK
6
CONTINUOUS
10
121.587
20
-81.5111
11
121.543
21
-81.4855
0
LINE
8
BLACK
6
CONTINUOUS
10
121.543
20
-81.4855
11
121.51
21
-81.4462
0
LINE
8
BLACK
6
CONTINUOUS
10
121.51
20
-81.4462
11
121.49
21
-81.3725
0
LINE
8
BLACK
6
CONTINUOUS
10
121.49
20
-81.3725
11
121.49
21
-81.0275
0
LINE
8
BLACK
6
CONTINUOUS
10
121.49
20
-81.0275
11
121.499
21
-80.9771
0
LINE
8
BLACK
6
CONTINUOUS
10
121.499
20
-80.9771
11
121.525
21
-80.9327
0
LINE
8
BLACK
6
CONTINUOUS
10
121.525
20
-80.9327
11
121.564
21
-80.8998
0
LINE
8
BLACK
6
CONTINUOUS
10
121.564
20
-80.8998
11
121.637
21
-80.88
0
LINE
8
BLACK
6
CONTINUOUS
10
121.637
20
-80.88
11
121.932
21
-80.88
0
LINE
8
BLACK
6
CONTINUOUS
10
121.932
20
-80.88
11
121.983
21
-80.8889
0
LINE
8
BLACK
6
CONTINUOUS
10
117.213
20
-80.8889
11
117.257
21
-80.9145
0
LINE
8
BLACK
6
CONTINUOUS
10
117.257
20
-80.9145
11
117.29
21
-80.9537
0
LINE
8
BLACK
6
CONTINUOUS
10
117.29
20
-80.9537
11
117.31
21
-81.0275
0
LINE
8
BLACK
6
CONTINUOUS
10
117.31
20
-81.0275
11
117.31
21
-81.3725
0
LINE
8
BLACK
6
CONTINUOUS
10
117.31
20
-81.3725
11
117.301
21
-81.4229
0
LINE
8
BLACK
6
CONTINUOUS
10
117.301
20
-81.4229
11
117.275
21
-81.4673
0
LINE
8
BLACK
6
CONTINUOUS
10
117.275
20
-81.4673
11
117.236
21
-81.5002
0
LINE
8
BLACK
6
CONTINUOUS
10
117.236
20
-81.5002
11
117.162
21
-81.52
0
LINE
8
BLACK
6
CONTINUOUS
10
117.162
20
-81.52
11
116.867
21
-81.52
0
LINE
8
BLACK
6
CONTINUOUS
10
116.867
20
-81.52
11
116.817
21
-81.5111
0
LINE
8
BLACK
6
CONTINUOUS
10
116.817
20
-81.5111
11
116.773
21
-81.4855
0
LINE
8
BLACK
6
CONTINUOUS
10
116.773
20
-81.4855
11
116.74
21
-81.4462
0
LINE
8
BLACK
6
CONTINUOUS
10
116.74
20
-81.4462
11
116.72
21
-81.3725
0
LINE
8
BLACK
6
CONTINUOUS
10
116.72
20
-81.3725
11
116.72
21
-81.0275
0
LINE
8
BLACK
6
CONTINUOUS
10
116.72
20
-81.0275
11
116.729
21
-80.9771
0
LINE
8
BLACK
6
CONTINUOUS
10
116.729
20
-80.9771
11
116.755
21
-80.9327
0
LINE
8
BLACK
6
CONTINUOUS
10
116.755
20
-80.9327
11
116.794
21
-80.8998
0
LINE
8
BLACK
6
CONTINUOUS
10
116.794
20
-80.8998
11
116.867
21
-80.88
0
LINE
8
BLACK
6
CONTINUOUS
10
116.867
20
-80.88
11
117.162
21
-80.88
0
LINE
8
BLACK
6
CONTINUOUS
10
117.162
20
-80.88
11
117.213
21
-80.8889
0
LINE
8
BLACK
6
CONTINUOUS
10
118.183
20
-80.8889
11
118.227
21
-80.9145
0
LINE
8
BLACK
6
CONTINUOUS
10
118.227
20
-80.9145
11
118.26
21
-80.9537
0
LINE
8
BLACK
6
CONTINUOUS
10
118.26
20
-80.9537
11
118.28
21
-81.0275
0
LINE
8
BLACK
6
CONTINUOUS
10
118.28
20
-81.0275
11
118.28
21
-81.3725
0
LINE
8
BLACK
6
CONTINUOUS
10
118.28
20
-81.3725
11
118.271
21
-81.4229
0
LINE
8
BLACK
6
CONTINUOUS
10
118.271
20
-81.4229
11
118.245
21
-81.4673
0
LINE
8
BLACK
6
CONTINUOUS
10
118.245
20
-81.4673
11
118.206
21
-81.5002
0
LINE
8
BLACK
6
CONTINUOUS
10
118.206
20
-81.5002
11
118.132
21
-81.52
0
LINE
8
BLACK
6
CONTINUOUS
10
118.132
20
-81.52
11
117.837
21
-81.52
0
LINE
8
BLACK
6
CONTINUOUS
10
117.837
20
-81.52
11
117.787
21
-81.5111
0
LINE
8
BLACK
6
CONTINUOUS
10
117.787
20
-81.5111
11
117.743
21
-81.4855
0
LINE
8
BLACK
6
CONTINUOUS
10
117.743
20
-81.4855
11
117.71
21
-81.4462
0
LINE
8
BLACK
6
CONTINUOUS
10
117.71
20
-81.4462
11
117.69
21
-81.3725
0
LINE
8
BLACK
6
CONTINUOUS
10
117.69
20
-81.3725
11
117.69
21
-81.0275
0
LINE
8
BLACK
6
CONTINUOUS
10
117.69
20
-81.0275
11
117.699
21
-80.9771
0
LINE
8
BLACK
6
CONTINUOUS
10
117.699
20
-80.9771
11
117.725
21
-80.9327
0
LINE
8
BLACK
6
CONTINUOUS
10
117.725
20
-80.9327
11
117.764
21
-80.8998
0
LINE
8
BLACK
6
CONTINUOUS
10
117.764
20
-80.8998
11
117.837
21
-80.88
0
LINE
8
BLACK
6
CONTINUOUS
10
117.837
20
-80.88
11
118.132
21
-80.88
0
LINE
8
BLACK
6
CONTINUOUS
10
118.132
20
-80.88
11
118.183
21
-80.8889
0
LINE
8
BLACK
6
CONTINUOUS
10
111.55
20
-80.95
11
110.45
21
-80.95
0
LINE
8
BLACK
6
CONTINUOUS
10
110.45
20
-80.95
11
110.45
21
-79.85
0
LINE
8
BLACK
6
CONTINUOUS
10
110.45
20
-79.85
11
111.55
21
-79.85
0
LINE
8
BLACK
6
CONTINUOUS
10
111.55
20
-79.85
11
111.55
21
-80.95
0
LINE
8
BLACK
6
CONTINUOUS
10
131.989
20
-80.1183
11
132.111
21
-80.1889
0
LINE
8
BLACK
6
CONTINUOUS
10
132.111
20
-80.1889
11
132.202
21
-80.2969
0
LINE
8
BLACK
6
CONTINUOUS
10
132.202
20
-80.2969
11
132.25
21
-80.4295
0
LINE
8
BLACK
6
CONTINUOUS
10
132.25
20
-80.4295
11
132.25
21
-80.5705
0
LINE
8
BLACK
6
CONTINUOUS
10
132.25
20
-80.5705
11
132.202
21
-80.7031
0
LINE
8
BLACK
6
CONTINUOUS
10
132.202
20
-80.7031
11
132.111
21
-80.8111
0
LINE
8
BLACK
6
CONTINUOUS
10
132.111
20
-80.8111
11
131.989
21
-80.8817
0
LINE
8
BLACK
6
CONTINUOUS
10
131.989
20
-80.8817
11
131.885
21
-80.9
0
LINE
8
BLACK
6
CONTINUOUS
10
131.885
20
-80.9
11
130.115
21
-80.9
0
LINE
8
BLACK
6
CONTINUOUS
10
130.115
20
-80.9
11
130.011
21
-80.8817
0
LINE
8
BLACK
6
CONTINUOUS
10
130.011
20
-80.8817
11
129.889
21
-80.8111
0
LINE
8
BLACK
6
CONTINUOUS
10
129.889
20
-80.8111
11
129.798
21
-80.7031
0
LINE
8
BLACK
6
CONTINUOUS
10
129.798
20
-80.7031
11
129.75
21
-80.5705
0
LINE
8
BLACK
6
CONTINUOUS
10
129.75
20
-80.5705
11
129.75
21
-80.4295
0
LINE
8
BLACK
6
CONTINUOUS
10
129.75
20
-80.4295
11
129.798
21
-80.2969
0
LINE
8
BLACK
6
CONTINUOUS
10
129.798
20
-80.2969
11
129.889
21
-80.1889
0
LINE
8
BLACK
6
CONTINUOUS
10
129.889
20
-80.1889
11
130.011
21
-80.1183
0
LINE
8
BLACK
6
CONTINUOUS
10
130.011
20
-80.1183
11
130.115
21
-80.1
0
LINE
8
BLACK
6
CONTINUOUS
10
130.115
20
-80.1
11
131.885
21
-80.1
0
LINE
8
BLACK
6
CONTINUOUS
10
131.885
20
-80.1
11
131.989
21
-80.1183
0
LINE
8
BLACK
6
CONTINUOUS
10
162.989
20
-80.1183
11
163.111
21
-80.1889
0
LINE
8
BLACK
6
CONTINUOUS
10
163.111
20
-80.1889
11
163.202
21
-80.2969
0
LINE
8
BLACK
6
CONTINUOUS
10
163.202
20
-80.2969
11
163.25
21
-80.4295
0
LINE
8
BLACK
6
CONTINUOUS
10
163.25
20
-80.4295
11
163.25
21
-80.5705
0
LINE
8
BLACK
6
CONTINUOUS
10
163.25
20
-80.5705
11
163.202
21
-80.7031
0
LINE
8
BLACK
6
CONTINUOUS
10
163.202
20
-80.7031
11
163.111
21
-80.8111
0
LINE
8
BLACK
6
CONTINUOUS
10
163.111
20
-80.8111
11
162.989
21
-80.8817
0
LINE
8
BLACK
6
CONTINUOUS
10
162.989
20
-80.8817
11
162.885
21
-80.9
0
LINE
8
BLACK
6
CONTINUOUS
10
162.885
20
-80.9
11
161.115
21
-80.9
0
LINE
8
BLACK
6
CONTINUOUS
10
161.115
20
-80.9
11
161.011
21
-80.8817
0
LINE
8
BLACK
6
CONTINUOUS
10
161.011
20
-80.8817
11
160.889
21
-80.8111
0
LINE
8
BLACK
6
CONTINUOUS
10
160.889
20
-80.8111
11
160.798
21
-80.7031
0
LINE
8
BLACK
6
CONTINUOUS
10
160.798
20
-80.7031
11
160.75
21
-80.5705
0
LINE
8
BLACK
6
CONTINUOUS
10
160.75
20
-80.5705
11
160.75
21
-80.4295
0
LINE
8
BLACK
6
CONTINUOUS
10
160.75
20
-80.4295
11
160.798
21
-80.2969
0
LINE
8
BLACK
6
CONTINUOUS
10
160.798
20
-80.2969
11
160.889
21
-80.1889
0
LINE
8
BLACK
6
CONTINUOUS
10
160.889
20
-80.1889
11
161.011
21
-80.1183
0
LINE
8
BLACK
6
CONTINUOUS
10
161.011
20
-80.1183
11
161.115
21
-80.1
0
LINE
8
BLACK
6
CONTINUOUS
10
161.115
20
-80.1
11
162.885
21
-80.1
0
LINE
8
BLACK
6
CONTINUOUS
10
162.885
20
-80.1
11
162.989
21
-80.1183
0
LINE
8
BLACK
6
CONTINUOUS
10
169.25
20
-80.7
11
164.75
21
-80.7
0
LINE
8
BLACK
6
CONTINUOUS
10
164.75
20
-80.7
11
164.75
21
-79.2
0
LINE
8
BLACK
6
CONTINUOUS
10
164.75
20
-79.2
11
169.25
21
-79.2
0
LINE
8
BLACK
6
CONTINUOUS
10
169.25
20
-79.2
11
169.25
21
-80.7
0
LINE
8
BLACK
6
CONTINUOUS
10
113.123
20
-80.0989
11
113.167
21
-80.1245
0
LINE
8
BLACK
6
CONTINUOUS
10
113.167
20
-80.1245
11
113.2
21
-80.1637
0
LINE
8
BLACK
6
CONTINUOUS
10
113.2
20
-80.1637
11
113.22
21
-80.2375
0
LINE
8
BLACK
6
CONTINUOUS
10
113.22
20
-80.2375
11
113.22
21
-80.5325
0
LINE
8
BLACK
6
CONTINUOUS
10
113.22
20
-80.5325
11
113.211
21
-80.5829
0
LINE
8
BLACK
6
CONTINUOUS
10
113.211
20
-80.5829
11
113.185
21
-80.6273
0
LINE
8
BLACK
6
CONTINUOUS
10
113.185
20
-80.6273
11
113.146
21
-80.6602
0
LINE
8
BLACK
6
CONTINUOUS
10
113.146
20
-80.6602
11
113.072
21
-80.68
0
LINE
8
BLACK
6
CONTINUOUS
10
113.072
20
-80.68
11
112.727
21
-80.68
0
LINE
8
BLACK
6
CONTINUOUS
10
112.727
20
-80.68
11
112.677
21
-80.6711
0
LINE
8
BLACK
6
CONTINUOUS
10
112.677
20
-80.6711
11
112.633
21
-80.6455
0
LINE
8
BLACK
6
CONTINUOUS
10
112.633
20
-80.6455
11
112.6
21
-80.6063
0
LINE
8
BLACK
6
CONTINUOUS
10
112.6
20
-80.6063
11
112.58
21
-80.5325
0
LINE
8
BLACK
6
CONTINUOUS
10
112.58
20
-80.5325
11
112.58
21
-80.2375
0
LINE
8
BLACK
6
CONTINUOUS
10
112.58
20
-80.2375
11
112.589
21
-80.1871
0
LINE
8
BLACK
6
CONTINUOUS
10
112.589
20
-80.1871
11
112.615
21
-80.1427
0
LINE
8
BLACK
6
CONTINUOUS
10
112.615
20
-80.1427
11
112.654
21
-80.1098
0
LINE
8
BLACK
6
CONTINUOUS
10
112.654
20
-80.1098
11
112.727
21
-80.09
0
LINE
8
BLACK
6
CONTINUOUS
10
112.727
20
-80.09
11
113.072
21
-80.09
0
LINE
8
BLACK
6
CONTINUOUS
10
113.072
20
-80.09
11
113.123
21
-80.0989
0
LINE
8
BLACK
6
CONTINUOUS
10
126.423
20
-79.7989
11
126.467
21
-79.8245
0
LINE
8
BLACK
6
CONTINUOUS
10
126.467
20
-79.8245
11
126.5
21
-79.8637
0
LINE
8
BLACK
6
CONTINUOUS
10
126.5
20
-79.8637
11
126.52
21
-79.9375
0
LINE
8
BLACK
6
CONTINUOUS
10
126.52
20
-79.9375
11
126.52
21
-80.2325
0
LINE
8
BLACK
6
CONTINUOUS
10
126.52
20
-80.2325
11
126.511
21
-80.2829
0
LINE
8
BLACK
6
CONTINUOUS
10
126.511
20
-80.2829
11
126.485
21
-80.3273
0
LINE
8
BLACK
6
CONTINUOUS
10
126.485
20
-80.3273
11
126.446
21
-80.3602
0
LINE
8
BLACK
6
CONTINUOUS
10
126.446
20
-80.3602
11
126.372
21
-80.38
0
LINE
8
BLACK
6
CONTINUOUS
10
126.372
20
-80.38
11
126.027
21
-80.38
0
LINE
8
BLACK
6
CONTINUOUS
10
126.027
20
-80.38
11
125.977
21
-80.3711
0
LINE
8
BLACK
6
CONTINUOUS
10
125.977
20
-80.3711
11
125.933
21
-80.3455
0
LINE
8
BLACK
6
CONTINUOUS
10
125.933
20
-80.3455
11
125.9
21
-80.3062
0
LINE
8
BLACK
6
CONTINUOUS
10
125.9
20
-80.3062
11
125.88
21
-80.2325
0
LINE
8
BLACK
6
CONTINUOUS
10
125.88
20
-80.2325
11
125.88
21
-79.9375
0
LINE
8
BLACK
6
CONTINUOUS
10
125.88
20
-79.9375
11
125.889
21
-79.8871
0
LINE
8
BLACK
6
CONTINUOUS
10
125.889
20
-79.8871
11
125.915
21
-79.8427
0
LINE
8
BLACK
6
CONTINUOUS
10
125.915
20
-79.8427
11
125.954
21
-79.8098
0
LINE
8
BLACK
6
CONTINUOUS
10
125.954
20
-79.8098
11
126.027
21
-79.79
0
LINE
8
BLACK
6
CONTINUOUS
10
126.027
20
-79.79
11
126.372
21
-79.79
0
LINE
8
BLACK
6
CONTINUOUS
10
126.372
20
-79.79
11
126.423
21
-79.7989
0
LINE
8
BLACK
6
CONTINUOUS
10
125.37
20
-80.3
11
124.87
21
-80.3
0
LINE
8
BLACK
6
CONTINUOUS
10
124.87
20
-80.3
11
124.87
21
-79.9
0
LINE
8
BLACK
6
CONTINUOUS
10
124.87
20
-79.9
11
125.37
21
-79.9
0
LINE
8
BLACK
6
CONTINUOUS
10
125.37
20
-79.9
11
125.37
21
-80.3
0
LINE
8
BLACK
6
CONTINUOUS
10
155.7
20
-80.2
11
153.7
21
-80.2
0
LINE
8
BLACK
6
CONTINUOUS
10
153.7
20
-80.2
11
153.7
21
-77.2
0
LINE
8
BLACK
6
CONTINUOUS
10
153.7
20
-77.2
11
155.7
21
-77.2
0
LINE
8
BLACK
6
CONTINUOUS
10
155.7
20
-77.2
11
155.7
21
-80.2
0
LINE
8
BLACK
6
CONTINUOUS
10
152.5
20
-80.2
11
150.5
21
-80.2
0
LINE
8
BLACK
6
CONTINUOUS
10
150.5
20
-80.2
11
150.5
21
-77.2
0
LINE
8
BLACK
6
CONTINUOUS
10
150.5
20
-77.2
11
152.5
21
-77.2
0
LINE
8
BLACK
6
CONTINUOUS
10
152.5
20
-77.2
11
152.5
21
-80.2
0
LINE
8
BLACK
6
CONTINUOUS
10
139.3
20
-80.2
11
137.3
21
-80.2
0
LINE
8
BLACK
6
CONTINUOUS
10
137.3
20
-80.2
11
137.3
21
-77.2
0
LINE
8
BLACK
6
CONTINUOUS
10
137.3
20
-77.2
11
139.3
21
-77.2
0
LINE
8
BLACK
6
CONTINUOUS
10
139.3
20
-77.2
11
139.3
21
-80.2
0
LINE
8
BLACK
6
CONTINUOUS
10
142.5
20
-80.2
11
140.5
21
-80.2
0
LINE
8
BLACK
6
CONTINUOUS
10
140.5
20
-80.2
11
140.5
21
-77.2
0
LINE
8
BLACK
6
CONTINUOUS
10
140.5
20
-77.2
11
142.5
21
-77.2
0
LINE
8
BLACK
6
CONTINUOUS
10
142.5
20
-77.2
11
142.5
21
-80.2
0
LINE
8
BLACK
6
CONTINUOUS
10
149.1
20
-80.2
11
147.1
21
-80.2
0
LINE
8
BLACK
6
CONTINUOUS
10
147.1
20
-80.2
11
147.1
21
-77.2
0
LINE
8
BLACK
6
CONTINUOUS
10
147.1
20
-77.2
11
149.1
21
-77.2
0
LINE
8
BLACK
6
CONTINUOUS
10
149.1
20
-77.2
11
149.1
21
-80.2
0
LINE
8
BLACK
6
CONTINUOUS
10
145.9
20
-80.2
11
143.9
21
-80.2
0
LINE
8
BLACK
6
CONTINUOUS
10
143.9
20
-80.2
11
143.9
21
-77.2
0
LINE
8
BLACK
6
CONTINUOUS
10
143.9
20
-77.2
11
145.9
21
-77.2
0
LINE
8
BLACK
6
CONTINUOUS
10
145.9
20
-77.2
11
145.9
21
-80.2
0
LINE
8
BLACK
6
CONTINUOUS
10
122.575
20
-79.94
11
121.025
21
-79.94
0
LINE
8
BLACK
6
CONTINUOUS
10
121.025
20
-79.94
11
121.025
21
-79.34
0
LINE
8
BLACK
6
CONTINUOUS
10
121.025
20
-79.34
11
122.575
21
-79.34
0
LINE
8
BLACK
6
CONTINUOUS
10
122.575
20
-79.34
11
122.575
21
-79.94
0
LINE
8
BLACK
6
CONTINUOUS
10
117.175
20
-79.94
11
115.625
21
-79.94
0
LINE
8
BLACK
6
CONTINUOUS
10
115.625
20
-79.94
11
115.625
21
-79.34
0
LINE
8
BLACK
6
CONTINUOUS
10
115.625
20
-79.34
11
117.175
21
-79.34
0
LINE
8
BLACK
6
CONTINUOUS
10
117.175
20
-79.34
11
117.175
21
-79.94
0
LINE
8
BLACK
6
CONTINUOUS
10
124.18
20
-79.85
11
123.58
21
-79.85
0
LINE
8
BLACK
6
CONTINUOUS
10
123.58
20
-79.85
11
123.58
21
-79.35
0
LINE
8
BLACK
6
CONTINUOUS
10
123.58
20
-79.35
11
124.18
21
-79.35
0
LINE
8
BLACK
6
CONTINUOUS
10
124.18
20
-79.35
11
124.18
21
-79.85
0
LINE
8
BLACK
6
CONTINUOUS
10
113.123
20
-79.1289
11
113.167
21
-79.1545
0
LINE
8
BLACK
6
CONTINUOUS
10
113.167
20
-79.1545
11
113.2
21
-79.1937
0
LINE
8
BLACK
6
CONTINUOUS
10
113.2
20
-79.1937
11
113.22
21
-79.2675
0
LINE
8
BLACK
6
CONTINUOUS
10
113.22
20
-79.2675
11
113.22
21
-79.5625
0
LINE
8
BLACK
6
CONTINUOUS
10
113.22
20
-79.5625
11
113.211
21
-79.6129
0
LINE
8
BLACK
6
CONTINUOUS
10
113.211
20
-79.6129
11
113.185
21
-79.6573
0
LINE
8
BLACK
6
CONTINUOUS
10
113.185
20
-79.6573
11
113.146
21
-79.6902
0
LINE
8
BLACK
6
CONTINUOUS
10
113.146
20
-79.6902
11
113.072
21
-79.71
0
LINE
8
BLACK
6
CONTINUOUS
10
113.072
20
-79.71
11
112.727
21
-79.71
0
LINE
8
BLACK
6
CONTINUOUS
10
112.727
20
-79.71
11
112.677
21
-79.7011
0
LINE
8
BLACK
6
CONTINUOUS
10
112.677
20
-79.7011
11
112.633
21
-79.6755
0
LINE
8
BLACK
6
CONTINUOUS
10
112.633
20
-79.6755
11
112.6
21
-79.6362
0
LINE
8
BLACK
6
CONTINUOUS
10
112.6
20
-79.6362
11
112.58
21
-79.5625
0
LINE
8
BLACK
6
CONTINUOUS
10
112.58
20
-79.5625
11
112.58
21
-79.2675
0
LINE
8
BLACK
6
CONTINUOUS
10
112.58
20
-79.2675
11
112.589
21
-79.2171
0
LINE
8
BLACK
6
CONTINUOUS
10
112.589
20
-79.2171
11
112.615
21
-79.1727
0
LINE
8
BLACK
6
CONTINUOUS
10
112.615
20
-79.1727
11
112.654
21
-79.1398
0
LINE
8
BLACK
6
CONTINUOUS
10
112.654
20
-79.1398
11
112.727
21
-79.12
0
LINE
8
BLACK
6
CONTINUOUS
10
112.727
20
-79.12
11
113.072
21
-79.12
0
LINE
8
BLACK
6
CONTINUOUS
10
113.072
20
-79.12
11
113.123
21
-79.1289
0
LINE
8
BLACK
6
CONTINUOUS
10
126.423
20
-78.8289
11
126.467
21
-78.8545
0
LINE
8
BLACK
6
CONTINUOUS
10
126.467
20
-78.8545
11
126.5
21
-78.8937
0
LINE
8
BLACK
6
CONTINUOUS
10
126.5
20
-78.8937
11
126.52
21
-78.9675
0
LINE
8
BLACK
6
CONTINUOUS
10
126.52
20
-78.9675
11
126.52
21
-79.2625
0
LINE
8
BLACK
6
CONTINUOUS
10
126.52
20
-79.2625
11
126.511
21
-79.3129
0
LINE
8
BLACK
6
CONTINUOUS
10
126.511
20
-79.3129
11
126.485
21
-79.3573
0
LINE
8
BLACK
6
CONTINUOUS
10
126.485
20
-79.3573
11
126.446
21
-79.3902
0
LINE
8
BLACK
6
CONTINUOUS
10
126.446
20
-79.3902
11
126.372
21
-79.41
0
LINE
8
BLACK
6
CONTINUOUS
10
126.372
20
-79.41
11
126.027
21
-79.41
0
LINE
8
BLACK
6
CONTINUOUS
10
126.027
20
-79.41
11
125.977
21
-79.4011
0
LINE
8
BLACK
6
CONTINUOUS
10
125.977
20
-79.4011
11
125.933
21
-79.3755
0
LINE
8
BLACK
6
CONTINUOUS
10
125.933
20
-79.3755
11
125.9
21
-79.3362
0
LINE
8
BLACK
6
CONTINUOUS
10
125.9
20
-79.3362
11
125.88
21
-79.2625
0
LINE
8
BLACK
6
CONTINUOUS
10
125.88
20
-79.2625
11
125.88
21
-78.9675
0
LINE
8
BLACK
6
CONTINUOUS
10
125.88
20
-78.9675
11
125.889
21
-78.9171
0
LINE
8
BLACK
6
CONTINUOUS
10
125.889
20
-78.9171
11
125.915
21
-78.8727
0
LINE
8
BLACK
6
CONTINUOUS
10
125.915
20
-78.8727
11
125.954
21
-78.8398
0
LINE
8
BLACK
6
CONTINUOUS
10
125.954
20
-78.8398
11
126.027
21
-78.82
0
LINE
8
BLACK
6
CONTINUOUS
10
126.027
20
-78.82
11
126.372
21
-78.82
0
LINE
8
BLACK
6
CONTINUOUS
10
126.372
20
-78.82
11
126.423
21
-78.8289
0
LINE
8
BLACK
6
CONTINUOUS
10
127.423
20
-78.7989
11
127.467
21
-78.8245
0
LINE
8
BLACK
6
CONTINUOUS
10
127.467
20
-78.8245
11
127.5
21
-78.8637
0
LINE
8
BLACK
6
CONTINUOUS
10
127.5
20
-78.8637
11
127.52
21
-78.9375
0
LINE
8
BLACK
6
CONTINUOUS
10
127.52
20
-78.9375
11
127.52
21
-79.2325
0
LINE
8
BLACK
6
CONTINUOUS
10
127.52
20
-79.2325
11
127.511
21
-79.2829
0
LINE
8
BLACK
6
CONTINUOUS
10
127.511
20
-79.2829
11
127.485
21
-79.3273
0
LINE
8
BLACK
6
CONTINUOUS
10
127.485
20
-79.3273
11
127.446
21
-79.3602
0
LINE
8
BLACK
6
CONTINUOUS
10
127.446
20
-79.3602
11
127.372
21
-79.38
0
LINE
8
BLACK
6
CONTINUOUS
10
127.372
20
-79.38
11
127.027
21
-79.38
0
LINE
8
BLACK
6
CONTINUOUS
10
127.027
20
-79.38
11
126.977
21
-79.3711
0
LINE
8
BLACK
6
CONTINUOUS
10
126.977
20
-79.3711
11
126.933
21
-79.3455
0
LINE
8
BLACK
6
CONTINUOUS
10
126.933
20
-79.3455
11
126.9
21
-79.3062
0
LINE
8
BLACK
6
CONTINUOUS
10
126.9
20
-79.3062
11
126.88
21
-79.2325
0
LINE
8
BLACK
6
CONTINUOUS
10
126.88
20
-79.2325
11
126.88
21
-78.9375
0
LINE
8
BLACK
6
CONTINUOUS
10
126.88
20
-78.9375
11
126.889
21
-78.8871
0
LINE
8
BLACK
6
CONTINUOUS
10
126.889
20
-78.8871
11
126.915
21
-78.8427
0
LINE
8
BLACK
6
CONTINUOUS
10
126.915
20
-78.8427
11
126.954
21
-78.8098
0
LINE
8
BLACK
6
CONTINUOUS
10
126.954
20
-78.8098
11
127.027
21
-78.79
0
LINE
8
BLACK
6
CONTINUOUS
10
127.027
20
-78.79
11
127.372
21
-78.79
0
LINE
8
BLACK
6
CONTINUOUS
10
127.372
20
-78.79
11
127.423
21
-78.7989
0
LINE
8
BLACK
6
CONTINUOUS
10
125.37
20
-79.3
11
124.87
21
-79.3
0
LINE
8
BLACK
6
CONTINUOUS
10
124.87
20
-79.3
11
124.87
21
-78.9
0
LINE
8
BLACK
6
CONTINUOUS
10
124.87
20
-78.9
11
125.37
21
-78.9
0
LINE
8
BLACK
6
CONTINUOUS
10
125.37
20
-78.9
11
125.37
21
-79.3
0
LINE
8
BLACK
6
CONTINUOUS
10
131.989
20
-78.3183
11
132.111
21
-78.3889
0
LINE
8
BLACK
6
CONTINUOUS
10
132.111
20
-78.3889
11
132.202
21
-78.4969
0
LINE
8
BLACK
6
CONTINUOUS
10
132.202
20
-78.4969
11
132.25
21
-78.6295
0
LINE
8
BLACK
6
CONTINUOUS
10
132.25
20
-78.6295
11
132.25
21
-78.7705
0
LINE
8
BLACK
6
CONTINUOUS
10
132.25
20
-78.7705
11
132.202
21
-78.9031
0
LINE
8
BLACK
6
CONTINUOUS
10
132.202
20
-78.9031
11
132.111
21
-79.0111
0
LINE
8
BLACK
6
CONTINUOUS
10
132.111
20
-79.0111
11
131.989
21
-79.0817
0
LINE
8
BLACK
6
CONTINUOUS
10
131.989
20
-79.0817
11
131.885
21
-79.1
0
LINE
8
BLACK
6
CONTINUOUS
10
131.885
20
-79.1
11
130.115
21
-79.1
0
LINE
8
BLACK
6
CONTINUOUS
10
130.115
20
-79.1
11
130.011
21
-79.0817
0
LINE
8
BLACK
6
CONTINUOUS
10
130.011
20
-79.0817
11
129.889
21
-79.0111
0
LINE
8
BLACK
6
CONTINUOUS
10
129.889
20
-79.0111
11
129.798
21
-78.9031
0
LINE
8
BLACK
6
CONTINUOUS
10
129.798
20
-78.9031
11
129.75
21
-78.7705
0
LINE
8
BLACK
6
CONTINUOUS
10
129.75
20
-78.7705
11
129.75
21
-78.6295
0
LINE
8
BLACK
6
CONTINUOUS
10
129.75
20
-78.6295
11
129.798
21
-78.4969
0
LINE
8
BLACK
6
CONTINUOUS
10
129.798
20
-78.4969
11
129.889
21
-78.3889
0
LINE
8
BLACK
6
CONTINUOUS
10
129.889
20
-78.3889
11
130.011
21
-78.3183
0
LINE
8
BLACK
6
CONTINUOUS
10
130.011
20
-78.3183
11
130.115
21
-78.3
0
LINE
8
BLACK
6
CONTINUOUS
10
130.115
20
-78.3
11
131.885
21
-78.3
0
LINE
8
BLACK
6
CONTINUOUS
10
131.885
20
-78.3
11
131.989
21
-78.3183
0
LINE
8
BLACK
6
CONTINUOUS
10
162.989
20
-78.3183
11
163.111
21
-78.3889
0
LINE
8
BLACK
6
CONTINUOUS
10
163.111
20
-78.3889
11
163.202
21
-78.4969
0
LINE
8
BLACK
6
CONTINUOUS
10
163.202
20
-78.4969
11
163.25
21
-78.6295
0
LINE
8
BLACK
6
CONTINUOUS
10
163.25
20
-78.6295
11
163.25
21
-78.7705
0
LINE
8
BLACK
6
CONTINUOUS
10
163.25
20
-78.7705
11
163.202
21
-78.9031
0
LINE
8
BLACK
6
CONTINUOUS
10
163.202
20
-78.9031
11
163.111
21
-79.0111
0
LINE
8
BLACK
6
CONTINUOUS
10
163.111
20
-79.0111
11
162.989
21
-79.0817
0
LINE
8
BLACK
6
CONTINUOUS
10
162.989
20
-79.0817
11
162.885
21
-79.1
0
LINE
8
BLACK
6
CONTINUOUS
10
162.885
20
-79.1
11
161.115
21
-79.1
0
LINE
8
BLACK
6
CONTINUOUS
10
161.115
20
-79.1
11
161.011
21
-79.0817
0
LINE
8
BLACK
6
CONTINUOUS
10
161.011
20
-79.0817
11
160.889
21
-79.0111
0
LINE
8
BLACK
6
CONTINUOUS
10
160.889
20
-79.0111
11
160.798
21
-78.9031
0
LINE
8
BLACK
6
CONTINUOUS
10
160.798
20
-78.9031
11
160.75
21
-78.7705
0
LINE
8
BLACK
6
CONTINUOUS
10
160.75
20
-78.7705
11
160.75
21
-78.6295
0
LINE
8
BLACK
6
CONTINUOUS
10
160.75
20
-78.6295
11
160.798
21
-78.4969
0
LINE
8
BLACK
6
CONTINUOUS
10
160.798
20
-78.4969
11
160.889
21
-78.3889
0
LINE
8
BLACK
6
CONTINUOUS
10
160.889
20
-78.3889
11
161.011
21
-78.3183
0
LINE
8
BLACK
6
CONTINUOUS
10
161.011
20
-78.3183
11
161.115
21
-78.3
0
LINE
8
BLACK
6
CONTINUOUS
10
161.115
20
-78.3
11
162.885
21
-78.3
0
LINE
8
BLACK
6
CONTINUOUS
10
162.885
20
-78.3
11
162.989
21
-78.3183
0
LINE
8
BLACK
6
CONTINUOUS
10
117.175
20
-78.67
11
115.625
21
-78.67
0
LINE
8
BLACK
6
CONTINUOUS
10
115.625
20
-78.67
11
115.625
21
-78.07
0
LINE
8
BLACK
6
CONTINUOUS
10
115.625
20
-78.07
11
117.175
21
-78.07
0
LINE
8
BLACK
6
CONTINUOUS
10
117.175
20
-78.07
11
117.175
21
-78.67
0
LINE
8
BLACK
6
CONTINUOUS
10
122.575
20
-78.67
11
121.025
21
-78.67
0
LINE
8
BLACK
6
CONTINUOUS
10
121.025
20
-78.67
11
121.025
21
-78.07
0
LINE
8
BLACK
6
CONTINUOUS
10
121.025
20
-78.07
11
122.575
21
-78.07
0
LINE
8
BLACK
6
CONTINUOUS
10
122.575
20
-78.07
11
122.575
21
-78.67
0
LINE
8
BLACK
6
CONTINUOUS
10
126.423
20
-77.8989
11
126.467
21
-77.9245
0
LINE
8
BLACK
6
CONTINUOUS
10
126.467
20
-77.9245
11
126.5
21
-77.9637
0
LINE
8
BLACK
6
CONTINUOUS
10
126.5
20
-77.9637
11
126.52
21
-78.0375
0
LINE
8
BLACK
6
CONTINUOUS
10
126.52
20
-78.0375
11
126.52
21
-78.3325
0
LINE
8
BLACK
6
CONTINUOUS
10
126.52
20
-78.3325
11
126.511
21
-78.3829
0
LINE
8
BLACK
6
CONTINUOUS
10
126.511
20
-78.3829
11
126.485
21
-78.4273
0
LINE
8
BLACK
6
CONTINUOUS
10
126.485
20
-78.4273
11
126.446
21
-78.4602
0
LINE
8
BLACK
6
CONTINUOUS
10
126.446
20
-78.4602
11
126.372
21
-78.48
0
LINE
8
BLACK
6
CONTINUOUS
10
126.372
20
-78.48
11
126.027
21
-78.48
0
LINE
8
BLACK
6
CONTINUOUS
10
126.027
20
-78.48
11
125.977
21
-78.4711
0
LINE
8
BLACK
6
CONTINUOUS
10
125.977
20
-78.4711
11
125.933
21
-78.4455
0
LINE
8
BLACK
6
CONTINUOUS
10
125.933
20
-78.4455
11
125.9
21
-78.4062
0
LINE
8
BLACK
6
CONTINUOUS
10
125.9
20
-78.4062
11
125.88
21
-78.3325
0
LINE
8
BLACK
6
CONTINUOUS
10
125.88
20
-78.3325
11
125.88
21
-78.0375
0
LINE
8
BLACK
6
CONTINUOUS
10
125.88
20
-78.0375
11
125.889
21
-77.9871
0
LINE
8
BLACK
6
CONTINUOUS
10
125.889
20
-77.9871
11
125.915
21
-77.9427
0
LINE
8
BLACK
6
CONTINUOUS
10
125.915
20
-77.9427
11
125.954
21
-77.9098
0
LINE
8
BLACK
6
CONTINUOUS
10
125.954
20
-77.9098
11
126.027
21
-77.89
0
LINE
8
BLACK
6
CONTINUOUS
10
126.027
20
-77.89
11
126.372
21
-77.89
0
LINE
8
BLACK
6
CONTINUOUS
10
126.372
20
-77.89
11
126.423
21
-77.8989
0
LINE
8
BLACK
6
CONTINUOUS
10
127.423
20
-77.8289
11
127.467
21
-77.8545
0
LINE
8
BLACK
6
CONTINUOUS
10
127.467
20
-77.8545
11
127.5
21
-77.8937
0
LINE
8
BLACK
6
CONTINUOUS
10
127.5
20
-77.8937
11
127.52
21
-77.9675
0
LINE
8
BLACK
6
CONTINUOUS
10
127.52
20
-77.9675
11
127.52
21
-78.2625
0
LINE
8
BLACK
6
CONTINUOUS
10
127.52
20
-78.2625
11
127.511
21
-78.3129
0
LINE
8
BLACK
6
CONTINUOUS
10
127.511
20
-78.3129
11
127.485
21
-78.3573
0
LINE
8
BLACK
6
CONTINUOUS
10
127.485
20
-78.3573
11
127.446
21
-78.3902
0
LINE
8
BLACK
6
CONTINUOUS
10
127.446
20
-78.3902
11
127.372
21
-78.41
0
LINE
8
BLACK
6
CONTINUOUS
10
127.372
20
-78.41
11
127.027
21
-78.41
0
LINE
8
BLACK
6
CONTINUOUS
10
127.027
20
-78.41
11
126.977
21
-78.4011
0
LINE
8
BLACK
6
CONTINUOUS
10
126.977
20
-78.4011
11
126.933
21
-78.3755
0
LINE
8
BLACK
6
CONTINUOUS
10
126.933
20
-78.3755
11
126.9
21
-78.3362
0
LINE
8
BLACK
6
CONTINUOUS
10
126.9
20
-78.3362
11
126.88
21
-78.2625
0
LINE
8
BLACK
6
CONTINUOUS
10
126.88
20
-78.2625
11
126.88
21
-77.9675
0
LINE
8
BLACK
6
CONTINUOUS
10
126.88
20
-77.9675
11
126.889
21
-77.9171
0
LINE
8
BLACK
6
CONTINUOUS
10
126.889
20
-77.9171
11
126.915
21
-77.8727
0
LINE
8
BLACK
6
CONTINUOUS
10
126.915
20
-77.8727
11
126.954
21
-77.8398
0
LINE
8
BLACK
6
CONTINUOUS
10
126.954
20
-77.8398
11
127.027
21
-77.82
0
LINE
8
BLACK
6
CONTINUOUS
10
127.027
20
-77.82
11
127.372
21
-77.82
0
LINE
8
BLACK
6
CONTINUOUS
10
127.372
20
-77.82
11
127.423
21
-77.8289
0
LINE
8
BLACK
6
CONTINUOUS
10
125.37
20
-78.4
11
124.87
21
-78.4
0
LINE
8
BLACK
6
CONTINUOUS
10
124.87
20
-78.4
11
124.87
21
-78
0
LINE
8
BLACK
6
CONTINUOUS
10
124.87
20
-78
11
125.37
21
-78
0
LINE
8
BLACK
6
CONTINUOUS
10
125.37
20
-78
11
125.37
21
-78.4
0
LINE
8
BLACK
6
CONTINUOUS
10
111.55
20
-78.15
11
110.45
21
-78.15
0
LINE
8
BLACK
6
CONTINUOUS
10
110.45
20
-78.15
11
110.45
21
-77.05
0
LINE
8
BLACK
6
CONTINUOUS
10
110.45
20
-77.05
11
111.55
21
-77.05
0
LINE
8
BLACK
6
CONTINUOUS
10
111.55
20
-77.05
11
111.55
21
-78.15
0
LINE
8
BLACK
6
CONTINUOUS
10
169.25
20
-78.15
11
164.75
21
-78.15
0
LINE
8
BLACK
6
CONTINUOUS
10
164.75
20
-78.15
11
164.75
21
-76.65
0
LINE
8
BLACK
6
CONTINUOUS
10
164.75
20
-76.65
11
169.25
21
-76.65
0
LINE
8
BLACK
6
CONTINUOUS
10
169.25
20
-76.65
11
169.25
21
-78.15
0
LINE
8
BLACK
6
CONTINUOUS
10
124.18
20
-77.95
11
123.58
21
-77.95
0
LINE
8
BLACK
6
CONTINUOUS
10
123.58
20
-77.95
11
123.58
21
-77.45
0
LINE
8
BLACK
6
CONTINUOUS
10
123.58
20
-77.45
11
124.18
21
-77.45
0
LINE
8
BLACK
6
CONTINUOUS
10
124.18
20
-77.45
11
124.18
21
-77.95
0
LINE
8
BLACK
6
CONTINUOUS
10
113.123
20
-77.2989
11
113.167
21
-77.3245
0
LINE
8
BLACK
6
CONTINUOUS
10
113.167
20
-77.3245
11
113.2
21
-77.3637
0
LINE
8
BLACK
6
CONTINUOUS
10
113.2
20
-77.3637
11
113.22
21
-77.4375
0
LINE
8
BLACK
6
CONTINUOUS
10
113.22
20
-77.4375
11
113.22
21
-77.7325
0
LINE
8
BLACK
6
CONTINUOUS
10
113.22
20
-77.7325
11
113.211
21
-77.7829
0
LINE
8
BLACK
6
CONTINUOUS
10
113.211
20
-77.7829
11
113.185
21
-77.8273
0
LINE
8
BLACK
6
CONTINUOUS
10
113.185
20
-77.8273
11
113.146
21
-77.8602
0
LINE
8
BLACK
6
CONTINUOUS
10
113.146
20
-77.8602
11
113.072
21
-77.88
0
LINE
8
BLACK
6
CONTINUOUS
10
113.072
20
-77.88
11
112.727
21
-77.88
0
LINE
8
BLACK
6
CONTINUOUS
10
112.727
20
-77.88
11
112.677
21
-77.8711
0
LINE
8
BLACK
6
CONTINUOUS
10
112.677
20
-77.8711
11
112.633
21
-77.8455
0
LINE
8
BLACK
6
CONTINUOUS
10
112.633
20
-77.8455
11
112.6
21
-77.8062
0
LINE
8
BLACK
6
CONTINUOUS
10
112.6
20
-77.8062
11
112.58
21
-77.7325
0
LINE
8
BLACK
6
CONTINUOUS
10
112.58
20
-77.7325
11
112.58
21
-77.4375
0
LINE
8
BLACK
6
CONTINUOUS
10
112.58
20
-77.4375
11
112.589
21
-77.3871
0
LINE
8
BLACK
6
CONTINUOUS
10
112.589
20
-77.3871
11
112.615
21
-77.3427
0
LINE
8
BLACK
6
CONTINUOUS
10
112.615
20
-77.3427
11
112.654
21
-77.3098
0
LINE
8
BLACK
6
CONTINUOUS
10
112.654
20
-77.3098
11
112.727
21
-77.29
0
LINE
8
BLACK
6
CONTINUOUS
10
112.727
20
-77.29
11
113.072
21
-77.29
0
LINE
8
BLACK
6
CONTINUOUS
10
113.072
20
-77.29
11
113.123
21
-77.2989
0
LINE
8
BLACK
6
CONTINUOUS
10
162.989
20
-77.0183
11
163.111
21
-77.0889
0
LINE
8
BLACK
6
CONTINUOUS
10
163.111
20
-77.0889
11
163.202
21
-77.1969
0
LINE
8
BLACK
6
CONTINUOUS
10
163.202
20
-77.1969
11
163.25
21
-77.3295
0
LINE
8
BLACK
6
CONTINUOUS
10
163.25
20
-77.3295
11
163.25
21
-77.4705
0
LINE
8
BLACK
6
CONTINUOUS
10
163.25
20
-77.4705
11
163.202
21
-77.6031
0
LINE
8
BLACK
6
CONTINUOUS
10
163.202
20
-77.6031
11
163.111
21
-77.7111
0
LINE
8
BLACK
6
CONTINUOUS
10
163.111
20
-77.7111
11
162.989
21
-77.7817
0
LINE
8
BLACK
6
CONTINUOUS
10
162.989
20
-77.7817
11
162.885
21
-77.8
0
LINE
8
BLACK
6
CONTINUOUS
10
162.885
20
-77.8
11
161.115
21
-77.8
0
LINE
8
BLACK
6
CONTINUOUS
10
161.115
20
-77.8
11
161.011
21
-77.7817
0
LINE
8
BLACK
6
CONTINUOUS
10
161.011
20
-77.7817
11
160.889
21
-77.7111
0
LINE
8
BLACK
6
CONTINUOUS
10
160.889
20
-77.7111
11
160.798
21
-77.6031
0
LINE
8
BLACK
6
CONTINUOUS
10
160.798
20
-77.6031
11
160.75
21
-77.4705
0
LINE
8
BLACK
6
CONTINUOUS
10
160.75
20
-77.4705
11
160.75
21
-77.3295
0
LINE
8
BLACK
6
CONTINUOUS
10
160.75
20
-77.3295
11
160.798
21
-77.1969
0
LINE
8
BLACK
6
CONTINUOUS
10
160.798
20
-77.1969
11
160.889
21
-77.0889
0
LINE
8
BLACK
6
CONTINUOUS
10
160.889
20
-77.0889
11
161.011
21
-77.0183
0
LINE
8
BLACK
6
CONTINUOUS
10
161.011
20
-77.0183
11
161.115
21
-77
0
LINE
8
BLACK
6
CONTINUOUS
10
161.115
20
-77
11
162.885
21
-77
0
LINE
8
BLACK
6
CONTINUOUS
10
162.885
20
-77
11
162.989
21
-77.0183
0
LINE
8
BLACK
6
CONTINUOUS
10
131.989
20
-77.0183
11
132.111
21
-77.0889
0
LINE
8
BLACK
6
CONTINUOUS
10
132.111
20
-77.0889
11
132.202
21
-77.1969
0
LINE
8
BLACK
6
CONTINUOUS
10
132.202
20
-77.1969
11
132.25
21
-77.3295
0
LINE
8
BLACK
6
CONTINUOUS
10
132.25
20
-77.3295
11
132.25
21
-77.4705
0
LINE
8
BLACK
6
CONTINUOUS
10
132.25
20
-77.4705
11
132.202
21
-77.6031
0
LINE
8
BLACK
6
CONTINUOUS
10
132.202
20
-77.6031
11
132.111
21
-77.7111
0
LINE
8
BLACK
6
CONTINUOUS
10
132.111
20
-77.7111
11
131.989
21
-77.7817
0
LINE
8
BLACK
6
CONTINUOUS
10
131.989
20
-77.7817
11
131.885
21
-77.8
0
LINE
8
BLACK
6
CONTINUOUS
10
131.885
20
-77.8
11
130.115
21
-77.8
0
LINE
8
BLACK
6
CONTINUOUS
10
130.115
20
-77.8
11
130.011
21
-77.7817
0
LINE
8
BLACK
6
CONTINUOUS
10
130.011
20
-77.7817
11
129.889
21
-77.7111
0
LINE
8
BLACK
6
CONTINUOUS
10
129.889
20
-77.7111
11
129.798
21
-77.6031
0
LINE
8
BLACK
6
CONTINUOUS
10
129.798
20
-77.6031
11
129.75
21
-77.4705
0
LINE
8
BLACK
6
CONTINUOUS
10
129.75
20
-77.4705
11
129.75
21
-77.3295
0
LINE
8
BLACK
6
CONTINUOUS
10
129.75
20
-77.3295
11
129.798
21
-77.1969
0
LINE
8
BLACK
6
CONTINUOUS
10
129.798
20
-77.1969
11
129.889
21
-77.0889
0
LINE
8
BLACK
6
CONTINUOUS
10
129.889
20
-77.0889
11
130.011
21
-77.0183
0
LINE
8
BLACK
6
CONTINUOUS
10
130.011
20
-77.0183
11
130.115
21
-77
0
LINE
8
BLACK
6
CONTINUOUS
10
130.115
20
-77
11
131.885
21
-77
0
LINE
8
BLACK
6
CONTINUOUS
10
131.885
20
-77
11
131.989
21
-77.0183
0
LINE
8
BLACK
6
CONTINUOUS
10
126.423
20
-76.9289
11
126.467
21
-76.9545
0
LINE
8
BLACK
6
CONTINUOUS
10
126.467
20
-76.9545
11
126.5
21
-76.9937
0
LINE
8
BLACK
6
CONTINUOUS
10
126.5
20
-76.9937
11
126.52
21
-77.0675
0
LINE
8
BLACK
6
CONTINUOUS
10
126.52
20
-77.0675
11
126.52
21
-77.3625
0
LINE
8
BLACK
6
CONTINUOUS
10
126.52
20
-77.3625
11
126.511
21
-77.4129
0
LINE
8
BLACK
6
CONTINUOUS
10
126.511
20
-77.4129
11
126.485
21
-77.4573
0
LINE
8
BLACK
6
CONTINUOUS
10
126.485
20
-77.4573
11
126.446
21
-77.4902
0
LINE
8
BLACK
6
CONTINUOUS
10
126.446
20
-77.4902
11
126.372
21
-77.51
0
LINE
8
BLACK
6
CONTINUOUS
10
126.372
20
-77.51
11
126.027
21
-77.51
0
LINE
8
BLACK
6
CONTINUOUS
10
126.027
20
-77.51
11
125.977
21
-77.5011
0
LINE
8
BLACK
6
CONTINUOUS
10
125.977
20
-77.5011
11
125.933
21
-77.4755
0
LINE
8
BLACK
6
CONTINUOUS
10
125.933
20
-77.4755
11
125.9
21
-77.4363
0
LINE
8
BLACK
6
CONTINUOUS
10
125.9
20
-77.4363
11
125.88
21
-77.3625
0
LINE
8
BLACK
6
CONTINUOUS
10
125.88
20
-77.3625
11
125.88
21
-77.0675
0
LINE
8
BLACK
6
CONTINUOUS
10
125.88
20
-77.0675
11
125.889
21
-77.0171
0
LINE
8
BLACK
6
CONTINUOUS
10
125.889
20
-77.0171
11
125.915
21
-76.9727
0
LINE
8
BLACK
6
CONTINUOUS
10
125.915
20
-76.9727
11
125.954
21
-76.9398
0
LINE
8
BLACK
6
CONTINUOUS
10
125.954
20
-76.9398
11
126.027
21
-76.92
0
LINE
8
BLACK
6
CONTINUOUS
10
126.027
20
-76.92
11
126.372
21
-76.92
0
LINE
8
BLACK
6
CONTINUOUS
10
126.372
20
-76.92
11
126.423
21
-76.9289
0
LINE
8
BLACK
6
CONTINUOUS
10
125.37
20
-77.4
11
124.87
21
-77.4
0
LINE
8
BLACK
6
CONTINUOUS
10
124.87
20
-77.4
11
124.87
21
-77
0
LINE
8
BLACK
6
CONTINUOUS
10
124.87
20
-77
11
125.37
21
-77
0
LINE
8
BLACK
6
CONTINUOUS
10
125.37
20
-77
11
125.37
21
-77.4
0
LINE
8
BLACK
6
CONTINUOUS
10
117.175
20
-77.4
11
115.625
21
-77.4
0
LINE
8
BLACK
6
CONTINUOUS
10
115.625
20
-77.4
11
115.625
21
-76.8
0
LINE
8
BLACK
6
CONTINUOUS
10
115.625
20
-76.8
11
117.175
21
-76.8
0
LINE
8
BLACK
6
CONTINUOUS
10
117.175
20
-76.8
11
117.175
21
-77.4
0
LINE
8
BLACK
6
CONTINUOUS
10
122.575
20
-77.4
11
121.025
21
-77.4
0
LINE
8
BLACK
6
CONTINUOUS
10
121.025
20
-77.4
11
121.025
21
-76.8
0
LINE
8
BLACK
6
CONTINUOUS
10
121.025
20
-76.8
11
122.575
21
-76.8
0
LINE
8
BLACK
6
CONTINUOUS
10
122.575
20
-76.8
11
122.575
21
-77.4
0
LINE
8
BLACK
6
CONTINUOUS
10
113.123
20
-76.3289
11
113.167
21
-76.3545
0
LINE
8
BLACK
6
CONTINUOUS
10
113.167
20
-76.3545
11
113.2
21
-76.3937
0
LINE
8
BLACK
6
CONTINUOUS
10
113.2
20
-76.3937
11
113.22
21
-76.4675
0
LINE
8
BLACK
6
CONTINUOUS
10
113.22
20
-76.4675
11
113.22
21
-76.7625
0
LINE
8
BLACK
6
CONTINUOUS
10
113.22
20
-76.7625
11
113.211
21
-76.8129
0
LINE
8
BLACK
6
CONTINUOUS
10
113.211
20
-76.8129
11
113.185
21
-76.8573
0
LINE
8
BLACK
6
CONTINUOUS
10
113.185
20
-76.8573
11
113.146
21
-76.8902
0
LINE
8
BLACK
6
CONTINUOUS
10
113.146
20
-76.8902
11
113.072
21
-76.91
0
LINE
8
BLACK
6
CONTINUOUS
10
113.072
20
-76.91
11
112.727
21
-76.91
0
LINE
8
BLACK
6
CONTINUOUS
10
112.727
20
-76.91
11
112.677
21
-76.9011
0
LINE
8
BLACK
6
CONTINUOUS
10
112.677
20
-76.9011
11
112.633
21
-76.8755
0
LINE
8
BLACK
6
CONTINUOUS
10
112.633
20
-76.8755
11
112.6
21
-76.8362
0
LINE
8
BLACK
6
CONTINUOUS
10
112.6
20
-76.8362
11
112.58
21
-76.7625
0
LINE
8
BLACK
6
CONTINUOUS
10
112.58
20
-76.7625
11
112.58
21
-76.4675
0
LINE
8
BLACK
6
CONTINUOUS
10
112.58
20
-76.4675
11
112.589
21
-76.4171
0
LINE
8
BLACK
6
CONTINUOUS
10
112.589
20
-76.4171
11
112.615
21
-76.3727
0
LINE
8
BLACK
6
CONTINUOUS
10
112.615
20
-76.3727
11
112.654
21
-76.3398
0
LINE
8
BLACK
6
CONTINUOUS
10
112.654
20
-76.3398
11
112.727
21
-76.32
0
LINE
8
BLACK
6
CONTINUOUS
10
112.727
20
-76.32
11
113.072
21
-76.32
0
LINE
8
BLACK
6
CONTINUOUS
10
113.072
20
-76.32
11
113.123
21
-76.3289
0
LINE
8
BLACK
6
CONTINUOUS
10
126.423
20
-75.9989
11
126.467
21
-76.0245
0
LINE
8
BLACK
6
CONTINUOUS
10
126.467
20
-76.0245
11
126.5
21
-76.0637
0
LINE
8
BLACK
6
CONTINUOUS
10
126.5
20
-76.0637
11
126.52
21
-76.1375
0
LINE
8
BLACK
6
CONTINUOUS
10
126.52
20
-76.1375
11
126.52
21
-76.4325
0
LINE
8
BLACK
6
CONTINUOUS
10
126.52
20
-76.4325
11
126.511
21
-76.4829
0
LINE
8
BLACK
6
CONTINUOUS
10
126.511
20
-76.4829
11
126.485
21
-76.5273
0
LINE
8
BLACK
6
CONTINUOUS
10
126.485
20
-76.5273
11
126.446
21
-76.5602
0
LINE
8
BLACK
6
CONTINUOUS
10
126.446
20
-76.5602
11
126.372
21
-76.58
0
LINE
8
BLACK
6
CONTINUOUS
10
126.372
20
-76.58
11
126.027
21
-76.58
0
LINE
8
BLACK
6
CONTINUOUS
10
126.027
20
-76.58
11
125.977
21
-76.5711
0
LINE
8
BLACK
6
CONTINUOUS
10
125.977
20
-76.5711
11
125.933
21
-76.5455
0
LINE
8
BLACK
6
CONTINUOUS
10
125.933
20
-76.5455
11
125.9
21
-76.5062
0
LINE
8
BLACK
6
CONTINUOUS
10
125.9
20
-76.5062
11
125.88
21
-76.4325
0
LINE
8
BLACK
6
CONTINUOUS
10
125.88
20
-76.4325
11
125.88
21
-76.1375
0
LINE
8
BLACK
6
CONTINUOUS
10
125.88
20
-76.1375
11
125.889
21
-76.0871
0
LINE
8
BLACK
6
CONTINUOUS
10
125.889
20
-76.0871
11
125.915
21
-76.0427
0
LINE
8
BLACK
6
CONTINUOUS
10
125.915
20
-76.0427
11
125.954
21
-76.0098
0
LINE
8
BLACK
6
CONTINUOUS
10
125.954
20
-76.0098
11
126.027
21
-75.99
0
LINE
8
BLACK
6
CONTINUOUS
10
126.027
20
-75.99
11
126.372
21
-75.99
0
LINE
8
BLACK
6
CONTINUOUS
10
126.372
20
-75.99
11
126.423
21
-75.9989
0
LINE
8
BLACK
6
CONTINUOUS
10
162.989
20
-75.7183
11
163.111
21
-75.7889
0
LINE
8
BLACK
6
CONTINUOUS
10
163.111
20
-75.7889
11
163.202
21
-75.8969
0
LINE
8
BLACK
6
CONTINUOUS
10
163.202
20
-75.8969
11
163.25
21
-76.0295
0
LINE
8
BLACK
6
CONTINUOUS
10
163.25
20
-76.0295
11
163.25
21
-76.1705
0
LINE
8
BLACK
6
CONTINUOUS
10
163.25
20
-76.1705
11
163.202
21
-76.3031
0
LINE
8
BLACK
6
CONTINUOUS
10
163.202
20
-76.3031
11
163.111
21
-76.4111
0
LINE
8
BLACK
6
CONTINUOUS
10
163.111
20
-76.4111
11
162.989
21
-76.4817
0
LINE
8
BLACK
6
CONTINUOUS
10
162.989
20
-76.4817
11
162.885
21
-76.5
0
LINE
8
BLACK
6
CONTINUOUS
10
162.885
20
-76.5
11
161.115
21
-76.5
0
LINE
8
BLACK
6
CONTINUOUS
10
161.115
20
-76.5
11
161.011
21
-76.4817
0
LINE
8
BLACK
6
CONTINUOUS
10
161.011
20
-76.4817
11
160.889
21
-76.4111
0
LINE
8
BLACK
6
CONTINUOUS
10
160.889
20
-76.4111
11
160.798
21
-76.3031
0
LINE
8
BLACK
6
CONTINUOUS
10
160.798
20
-76.3031
11
160.75
21
-76.1705
0
LINE
8
BLACK
6
CONTINUOUS
10
160.75
20
-76.1705
11
160.75
21
-76.0295
0
LINE
8
BLACK
6
CONTINUOUS
10
160.75
20
-76.0295
11
160.798
21
-75.8969
0
LINE
8
BLACK
6
CONTINUOUS
10
160.798
20
-75.8969
11
160.889
21
-75.7889
0
LINE
8
BLACK
6
CONTINUOUS
10
160.889
20
-75.7889
11
161.011
21
-75.7183
0
LINE
8
BLACK
6
CONTINUOUS
10
161.011
20
-75.7183
11
161.115
21
-75.7
0
LINE
8
BLACK
6
CONTINUOUS
10
161.115
20
-75.7
11
162.885
21
-75.7
0
LINE
8
BLACK
6
CONTINUOUS
10
162.885
20
-75.7
11
162.989
21
-75.7183
0
LINE
8
BLACK
6
CONTINUOUS
10
125.37
20
-76.5
11
124.87
21
-76.5
0
LINE
8
BLACK
6
CONTINUOUS
10
124.87
20
-76.5
11
124.87
21
-76.1
0
LINE
8
BLACK
6
CONTINUOUS
10
124.87
20
-76.1
11
125.37
21
-76.1
0
LINE
8
BLACK
6
CONTINUOUS
10
125.37
20
-76.1
11
125.37
21
-76.5
0
LINE
8
BLACK
6
CONTINUOUS
10
131.989
20
-75.7183
11
132.111
21
-75.7889
0
LINE
8
BLACK
6
CONTINUOUS
10
132.111
20
-75.7889
11
132.202
21
-75.8969
0
LINE
8
BLACK
6
CONTINUOUS
10
132.202
20
-75.8969
11
132.25
21
-76.0295
0
LINE
8
BLACK
6
CONTINUOUS
10
132.25
20
-76.0295
11
132.25
21
-76.1705
0
LINE
8
BLACK
6
CONTINUOUS
10
132.25
20
-76.1705
11
132.202
21
-76.3031
0
LINE
8
BLACK
6
CONTINUOUS
10
132.202
20
-76.3031
11
132.111
21
-76.4111
0
LINE
8
BLACK
6
CONTINUOUS
10
132.111
20
-76.4111
11
131.989
21
-76.4817
0
LINE
8
BLACK
6
CONTINUOUS
10
131.989
20
-76.4817
11
131.885
21
-76.5
0
LINE
8
BLACK
6
CONTINUOUS
10
131.885
20
-76.5
11
130.115
21
-76.5
0
LINE
8
BLACK
6
CONTINUOUS
10
130.115
20
-76.5
11
130.011
21
-76.4817
0
LINE
8
BLACK
6
CONTINUOUS
10
130.011
20
-76.4817
11
129.889
21
-76.4111
0
LINE
8
BLACK
6
CONTINUOUS
10
129.889
20
-76.4111
11
129.798
21
-76.3031
0
LINE
8
BLACK
6
CONTINUOUS
10
129.798
20
-76.3031
11
129.75
21
-76.1705
0
LINE
8
BLACK
6
CONTINUOUS
10
129.75
20
-76.1705
11
129.75
21
-76.0295
0
LINE
8
BLACK
6
CONTINUOUS
10
129.75
20
-76.0295
11
129.798
21
-75.8969
0
LINE
8
BLACK
6
CONTINUOUS
10
129.798
20
-75.8969
11
129.889
21
-75.7889
0
LINE
8
BLACK
6
CONTINUOUS
10
129.889
20
-75.7889
11
130.011
21
-75.7183
0
LINE
8
BLACK
6
CONTINUOUS
10
130.011
20
-75.7183
11
130.115
21
-75.7
0
LINE
8
BLACK
6
CONTINUOUS
10
130.115
20
-75.7
11
131.885
21
-75.7
0
LINE
8
BLACK
6
CONTINUOUS
10
131.885
20
-75.7
11
131.989
21
-75.7183
0
LINE
8
BLACK
6
CONTINUOUS
10
117.175
20
-76.13
11
115.625
21
-76.13
0
LINE
8
BLACK
6
CONTINUOUS
10
115.625
20
-76.13
11
115.625
21
-75.53
0
LINE
8
BLACK
6
CONTINUOUS
10
115.625
20
-75.53
11
117.175
21
-75.53
0
LINE
8
BLACK
6
CONTINUOUS
10
117.175
20
-75.53
11
117.175
21
-76.13
0
LINE
8
BLACK
6
CONTINUOUS
10
122.575
20
-76.13
11
121.025
21
-76.13
0
LINE
8
BLACK
6
CONTINUOUS
10
121.025
20
-76.13
11
121.025
21
-75.53
0
LINE
8
BLACK
6
CONTINUOUS
10
121.025
20
-75.53
11
122.575
21
-75.53
0
LINE
8
BLACK
6
CONTINUOUS
10
122.575
20
-75.53
11
122.575
21
-76.13
0
LINE
8
BLACK
6
CONTINUOUS
10
124.18
20
-76.05
11
123.58
21
-76.05
0
LINE
8
BLACK
6
CONTINUOUS
10
123.58
20
-76.05
11
123.58
21
-75.55
0
LINE
8
BLACK
6
CONTINUOUS
10
123.58
20
-75.55
11
124.18
21
-75.55
0
LINE
8
BLACK
6
CONTINUOUS
10
124.18
20
-75.55
11
124.18
21
-76.05
0
LINE
8
BLACK
6
CONTINUOUS
10
111.55
20
-75.95
11
110.45
21
-75.95
0
LINE
8
BLACK
6
CONTINUOUS
10
110.45
20
-75.95
11
110.45
21
-74.85
0
LINE
8
BLACK
6
CONTINUOUS
10
110.45
20
-74.85
11
111.55
21
-74.85
0
LINE
8
BLACK
6
CONTINUOUS
10
111.55
20
-74.85
11
111.55
21
-75.95
0
LINE
8
BLACK
6
CONTINUOUS
10
126.423
20
-75.0289
11
126.467
21
-75.0545
0
LINE
8
BLACK
6
CONTINUOUS
10
126.467
20
-75.0545
11
126.5
21
-75.0938
0
LINE
8
BLACK
6
CONTINUOUS
10
126.5
20
-75.0938
11
126.52
21
-75.1675
0
LINE
8
BLACK
6
CONTINUOUS
10
126.52
20
-75.1675
11
126.52
21
-75.4625
0
LINE
8
BLACK
6
CONTINUOUS
10
126.52
20
-75.4625
11
126.511
21
-75.5129
0
LINE
8
BLACK
6
CONTINUOUS
10
126.511
20
-75.5129
11
126.485
21
-75.5573
0
LINE
8
BLACK
6
CONTINUOUS
10
126.485
20
-75.5573
11
126.446
21
-75.5902
0
LINE
8
BLACK
6
CONTINUOUS
10
126.446
20
-75.5902
11
126.372
21
-75.61
0
LINE
8
BLACK
6
CONTINUOUS
10
126.372
20
-75.61
11
126.027
21
-75.61
0
LINE
8
BLACK
6
CONTINUOUS
10
126.027
20
-75.61
11
125.977
21
-75.6011
0
LINE
8
BLACK
6
CONTINUOUS
10
125.977
20
-75.6011
11
125.933
21
-75.5755
0
LINE
8
BLACK
6
CONTINUOUS
10
125.933
20
-75.5755
11
125.9
21
-75.5362
0
LINE
8
BLACK
6
CONTINUOUS
10
125.9
20
-75.5362
11
125.88
21
-75.4625
0
LINE
8
BLACK
6
CONTINUOUS
10
125.88
20
-75.4625
11
125.88
21
-75.1675
0
LINE
8
BLACK
6
CONTINUOUS
10
125.88
20
-75.1675
11
125.889
21
-75.1171
0
LINE
8
BLACK
6
CONTINUOUS
10
125.889
20
-75.1171
11
125.915
21
-75.0727
0
LINE
8
BLACK
6
CONTINUOUS
10
125.915
20
-75.0727
11
125.954
21
-75.0398
0
LINE
8
BLACK
6
CONTINUOUS
10
125.954
20
-75.0398
11
126.027
21
-75.02
0
LINE
8
BLACK
6
CONTINUOUS
10
126.027
20
-75.02
11
126.372
21
-75.02
0
LINE
8
BLACK
6
CONTINUOUS
10
126.372
20
-75.02
11
126.423
21
-75.0289
0
LINE
8
BLACK
6
CONTINUOUS
10
169.25
20
-75.6
11
164.75
21
-75.6
0
LINE
8
BLACK
6
CONTINUOUS
10
164.75
20
-75.6
11
164.75
21
-74.1
0
LINE
8
BLACK
6
CONTINUOUS
10
164.75
20
-74.1
11
169.25
21
-74.1
0
LINE
8
BLACK
6
CONTINUOUS
10
169.25
20
-74.1
11
169.25
21
-75.6
0
LINE
8
BLACK
6
CONTINUOUS
10
125.37
20
-75.5
11
124.87
21
-75.5
0
LINE
8
BLACK
6
CONTINUOUS
10
124.87
20
-75.5
11
124.87
21
-75.1
0
LINE
8
BLACK
6
CONTINUOUS
10
124.87
20
-75.1
11
125.37
21
-75.1
0
LINE
8
BLACK
6
CONTINUOUS
10
125.37
20
-75.1
11
125.37
21
-75.5
0
LINE
8
BLACK
6
CONTINUOUS
10
152.5
20
-75.4
11
150.5
21
-75.4
0
LINE
8
BLACK
6
CONTINUOUS
10
150.5
20
-75.4
11
150.5
21
-72.4
0
LINE
8
BLACK
6
CONTINUOUS
10
150.5
20
-72.4
11
152.5
21
-72.4
0
LINE
8
BLACK
6
CONTINUOUS
10
152.5
20
-72.4
11
152.5
21
-75.4
0
LINE
8
BLACK
6
CONTINUOUS
10
149.1
20
-75.4
11
147.1
21
-75.4
0
LINE
8
BLACK
6
CONTINUOUS
10
147.1
20
-75.4
11
147.1
21
-72.4
0
LINE
8
BLACK
6
CONTINUOUS
10
147.1
20
-72.4
11
149.1
21
-72.4
0
LINE
8
BLACK
6
CONTINUOUS
10
149.1
20
-72.4
11
149.1
21
-75.4
0
LINE
8
BLACK
6
CONTINUOUS
10
155.7
20
-75.4
11
153.7
21
-75.4
0
LINE
8
BLACK
6
CONTINUOUS
10
153.7
20
-75.4
11
153.7
21
-72.4
0
LINE
8
BLACK
6
CONTINUOUS
10
153.7
20
-72.4
11
155.7
21
-72.4
0
LINE
8
BLACK
6
CONTINUOUS
10
155.7
20
-72.4
11
155.7
21
-75.4
0
LINE
8
BLACK
6
CONTINUOUS
10
142.5
20
-75.4
11
140.5
21
-75.4
0
LINE
8
BLACK
6
CONTINUOUS
10
140.5
20
-75.4
11
140.5
21
-72.4
0
LINE
8
BLACK
6
CONTINUOUS
10
140.5
20
-72.4
11
142.5
21
-72.4
0
LINE
8
BLACK
6
CONTINUOUS
10
142.5
20
-72.4
11
142.5
21
-75.4
0
LINE
8
BLACK
6
CONTINUOUS
10
139.3
20
-75.4
11
137.3
21
-75.4
0
LINE
8
BLACK
6
CONTINUOUS
10
137.3
20
-75.4
11
137.3
21
-73.1
0
LINE
8
BLACK
6
CONTINUOUS
10
137.3
20
-73.1
11
138
21
-72.4
0
LINE
8
BLACK
6
CONTINUOUS
10
138
20
-72.4
11
139.3
21
-72.4
0
LINE
8
BLACK
6
CONTINUOUS
10
139.3
20
-72.4
11
139.3
21
-75.4
0
LINE
8
BLACK
6
CONTINUOUS
10
145.9
20
-75.4
11
143.9
21
-75.4
0
LINE
8
BLACK
6
CONTINUOUS
10
143.9
20
-75.4
11
143.9
21
-72.4
0
LINE
8
BLACK
6
CONTINUOUS
10
143.9
20
-72.4
11
145.9
21
-72.4
0
LINE
8
BLACK
6
CONTINUOUS
10
145.9
20
-72.4
11
145.9
21
-75.4
0
LINE
8
BLACK
6
CONTINUOUS
10
162.989
20
-74.4183
11
163.111
21
-74.4889
0
LINE
8
BLACK
6
CONTINUOUS
10
163.111
20
-74.4889
11
163.202
21
-74.5969
0
LINE
8
BLACK
6
CONTINUOUS
10
163.202
20
-74.5969
11
163.25
21
-74.7295
0
LINE
8
BLACK
6
CONTINUOUS
10
163.25
20
-74.7295
11
163.25
21
-74.8705
0
LINE
8
BLACK
6
CONTINUOUS
10
163.25
20
-74.8705
11
163.202
21
-75.0031
0
LINE
8
BLACK
6
CONTINUOUS
10
163.202
20
-75.0031
11
163.111
21
-75.1111
0
LINE
8
BLACK
6
CONTINUOUS
10
163.111
20
-75.1111
11
162.989
21
-75.1817
0
LINE
8
BLACK
6
CONTINUOUS
10
162.989
20
-75.1817
11
162.885
21
-75.2
0
LINE
8
BLACK
6
CONTINUOUS
10
162.885
20
-75.2
11
161.115
21
-75.2
0
LINE
8
BLACK
6
CONTINUOUS
10
161.115
20
-75.2
11
161.011
21
-75.1817
0
LINE
8
BLACK
6
CONTINUOUS
10
161.011
20
-75.1817
11
160.889
21
-75.1111
0
LINE
8
BLACK
6
CONTINUOUS
10
160.889
20
-75.1111
11
160.798
21
-75.0031
0
LINE
8
BLACK
6
CONTINUOUS
10
160.798
20
-75.0031
11
160.75
21
-74.8705
0
LINE
8
BLACK
6
CONTINUOUS
10
160.75
20
-74.8705
11
160.75
21
-74.7295
0
LINE
8
BLACK
6
CONTINUOUS
10
160.75
20
-74.7295
11
160.798
21
-74.5969
0
LINE
8
BLACK
6
CONTINUOUS
10
160.798
20
-74.5969
11
160.889
21
-74.4889
0
LINE
8
BLACK
6
CONTINUOUS
10
160.889
20
-74.4889
11
161.011
21
-74.4183
0
LINE
8
BLACK
6
CONTINUOUS
10
161.011
20
-74.4183
11
161.115
21
-74.4
0
LINE
8
BLACK
6
CONTINUOUS
10
161.115
20
-74.4
11
162.885
21
-74.4
0
LINE
8
BLACK
6
CONTINUOUS
10
162.885
20
-74.4
11
162.989
21
-74.4183
0
LINE
8
BLACK
6
CONTINUOUS
10
131.989
20
-74.4183
11
132.111
21
-74.4889
0
LINE
8
BLACK
6
CONTINUOUS
10
132.111
20
-74.4889
11
132.202
21
-74.5969
0
LINE
8
BLACK
6
CONTINUOUS
10
132.202
20
-74.5969
11
132.25
21
-74.7295
0
LINE
8
BLACK
6
CONTINUOUS
10
132.25
20
-74.7295
11
132.25
21
-74.8705
0
LINE
8
BLACK
6
CONTINUOUS
10
132.25
20
-74.8705
11
132.202
21
-75.0031
0
LINE
8
BLACK
6
CONTINUOUS
10
132.202
20
-75.0031
11
132.111
21
-75.1111
0
LINE
8
BLACK
6
CONTINUOUS
10
132.111
20
-75.1111
11
131.989
21
-75.1817
0
LINE
8
BLACK
6
CONTINUOUS
10
131.989
20
-75.1817
11
131.885
21
-75.2
0
LINE
8
BLACK
6
CONTINUOUS
10
131.885
20
-75.2
11
130.115
21
-75.2
0
LINE
8
BLACK
6
CONTINUOUS
10
130.115
20
-75.2
11
130.011
21
-75.1817
0
LINE
8
BLACK
6
CONTINUOUS
10
130.011
20
-75.1817
11
129.889
21
-75.1111
0
LINE
8
BLACK
6
CONTINUOUS
10
129.889
20
-75.1111
11
129.798
21
-75.0031
0
LINE
8
BLACK
6
CONTINUOUS
10
129.798
20
-75.0031
11
129.75
21
-74.8705
0
LINE
8
BLACK
6
CONTINUOUS
10
129.75
20
-74.8705
11
129.75
21
-74.7295
0
LINE
8
BLACK
6
CONTINUOUS
10
129.75
20
-74.7295
11
129.798
21
-74.5969
0
LINE
8
BLACK
6
CONTINUOUS
10
129.798
20
-74.5969
11
129.889
21
-74.4889
0
LINE
8
BLACK
6
CONTINUOUS
10
129.889
20
-74.4889
11
130.011
21
-74.4183
0
LINE
8
BLACK
6
CONTINUOUS
10
130.011
20
-74.4183
11
130.115
21
-74.4
0
LINE
8
BLACK
6
CONTINUOUS
10
130.115
20
-74.4
11
131.885
21
-74.4
0
LINE
8
BLACK
6
CONTINUOUS
10
131.885
20
-74.4
11
131.989
21
-74.4183
0
LINE
8
BLACK
6
CONTINUOUS
10
162.989
20
-73.1183
11
163.111
21
-73.1889
0
LINE
8
BLACK
6
CONTINUOUS
10
163.111
20
-73.1889
11
163.202
21
-73.2969
0
LINE
8
BLACK
6
CONTINUOUS
10
163.202
20
-73.2969
11
163.25
21
-73.4295
0
LINE
8
BLACK
6
CONTINUOUS
10
163.25
20
-73.4295
11
163.25
21
-73.5705
0
LINE
8
BLACK
6
CONTINUOUS
10
163.25
20
-73.5705
11
163.202
21
-73.7031
0
LINE
8
BLACK
6
CONTINUOUS
10
163.202
20
-73.7031
11
163.111
21
-73.8111
0
LINE
8
BLACK
6
CONTINUOUS
10
163.111
20
-73.8111
11
162.989
21
-73.8817
0
LINE
8
BLACK
6
CONTINUOUS
10
162.989
20
-73.8817
11
162.885
21
-73.9
0
LINE
8
BLACK
6
CONTINUOUS
10
162.885
20
-73.9
11
161.115
21
-73.9
0
LINE
8
BLACK
6
CONTINUOUS
10
161.115
20
-73.9
11
161.011
21
-73.8817
0
LINE
8
BLACK
6
CONTINUOUS
10
161.011
20
-73.8817
11
160.889
21
-73.8111
0
LINE
8
BLACK
6
CONTINUOUS
10
160.889
20
-73.8111
11
160.798
21
-73.7031
0
LINE
8
BLACK
6
CONTINUOUS
10
160.798
20
-73.7031
11
160.75
21
-73.5705
0
LINE
8
BLACK
6
CONTINUOUS
10
160.75
20
-73.5705
11
160.75
21
-73.4295
0
LINE
8
BLACK
6
CONTINUOUS
10
160.75
20
-73.4295
11
160.798
21
-73.2969
0
LINE
8
BLACK
6
CONTINUOUS
10
160.798
20
-73.2969
11
160.889
21
-73.1889
0
LINE
8
BLACK
6
CONTINUOUS
10
160.889
20
-73.1889
11
161.011
21
-73.1183
0
LINE
8
BLACK
6
CONTINUOUS
10
161.011
20
-73.1183
11
161.115
21
-73.1
0
LINE
8
BLACK
6
CONTINUOUS
10
161.115
20
-73.1
11
162.885
21
-73.1
0
LINE
8
BLACK
6
CONTINUOUS
10
162.885
20
-73.1
11
162.989
21
-73.1183
0
LINE
8
BLACK
6
CONTINUOUS
10
131.989
20
-73.1183
11
132.111
21
-73.1889
0
LINE
8
BLACK
6
CONTINUOUS
10
132.111
20
-73.1889
11
132.202
21
-73.2969
0
LINE
8
BLACK
6
CONTINUOUS
10
132.202
20
-73.2969
11
132.25
21
-73.4295
0
LINE
8
BLACK
6
CONTINUOUS
10
132.25
20
-73.4295
11
132.25
21
-73.5705
0
LINE
8
BLACK
6
CONTINUOUS
10
132.25
20
-73.5705
11
132.202
21
-73.7031
0
LINE
8
BLACK
6
CONTINUOUS
10
132.202
20
-73.7031
11
132.111
21
-73.8111
0
LINE
8
BLACK
6
CONTINUOUS
10
132.111
20
-73.8111
11
131.989
21
-73.8817
0
LINE
8
BLACK
6
CONTINUOUS
10
131.989
20
-73.8817
11
131.885
21
-73.9
0
LINE
8
BLACK
6
CONTINUOUS
10
131.885
20
-73.9
11
130.115
21
-73.9
0
LINE
8
BLACK
6
CONTINUOUS
10
130.115
20
-73.9
11
130.011
21
-73.8817
0
LINE
8
BLACK
6
CONTINUOUS
10
130.011
20
-73.8817
11
129.889
21
-73.8111
0
LINE
8
BLACK
6
CONTINUOUS
10
129.889
20
-73.8111
11
129.798
21
-73.7031
0
LINE
8
BLACK
6
CONTINUOUS
10
129.798
20
-73.7031
11
129.75
21
-73.5705
0
LINE
8
BLACK
6
CONTINUOUS
10
129.75
20
-73.5705
11
129.75
21
-73.4295
0
LINE
8
BLACK
6
CONTINUOUS
10
129.75
20
-73.4295
11
129.798
21
-73.2969
0
LINE
8
BLACK
6
CONTINUOUS
10
129.798
20
-73.2969
11
129.889
21
-73.1889
0
LINE
8
BLACK
6
CONTINUOUS
10
129.889
20
-73.1889
11
130.011
21
-73.1183
0
LINE
8
BLACK
6
CONTINUOUS
10
130.011
20
-73.1183
11
130.115
21
-73.1
0
LINE
8
BLACK
6
CONTINUOUS
10
130.115
20
-73.1
11
131.885
21
-73.1
0
LINE
8
BLACK
6
CONTINUOUS
10
131.885
20
-73.1
11
131.989
21
-73.1183
0
LINE
8
BLACK
6
CONTINUOUS
10
111.55
20
-73.15
11
110.45
21
-73.15
0
LINE
8
BLACK
6
CONTINUOUS
10
110.45
20
-73.15
11
110.45
21
-72.05
0
LINE
8
BLACK
6
CONTINUOUS
10
110.45
20
-72.05
11
111.55
21
-72.05
0
LINE
8
BLACK
6
CONTINUOUS
10
111.55
20
-72.05
11
111.55
21
-73.15
0
LINE
8
BLACK
6
CONTINUOUS
10
131.989
20
-71.8183
11
132.111
21
-71.8889
0
LINE
8
BLACK
6
CONTINUOUS
10
132.111
20
-71.8889
11
132.202
21
-71.9969
0
LINE
8
BLACK
6
CONTINUOUS
10
132.202
20
-71.9969
11
132.25
21
-72.1295
0
LINE
8
BLACK
6
CONTINUOUS
10
132.25
20
-72.1295
11
132.25
21
-72.2705
0
LINE
8
BLACK
6
CONTINUOUS
10
132.25
20
-72.2705
11
132.202
21
-72.4031
0
LINE
8
BLACK
6
CONTINUOUS
10
132.202
20
-72.4031
11
132.111
21
-72.5111
0
LINE
8
BLACK
6
CONTINUOUS
10
132.111
20
-72.5111
11
131.989
21
-72.5817
0
LINE
8
BLACK
6
CONTINUOUS
10
131.989
20
-72.5817
11
131.885
21
-72.6
0
LINE
8
BLACK
6
CONTINUOUS
10
131.885
20
-72.6
11
130.115
21
-72.6
0
LINE
8
BLACK
6
CONTINUOUS
10
130.115
20
-72.6
11
130.011
21
-72.5817
0
LINE
8
BLACK
6
CONTINUOUS
10
130.011
20
-72.5817
11
129.889
21
-72.5111
0
LINE
8
BLACK
6
CONTINUOUS
10
129.889
20
-72.5111
11
129.798
21
-72.4031
0
LINE
8
BLACK
6
CONTINUOUS
10
129.798
20
-72.4031
11
129.75
21
-72.2705
0
LINE
8
BLACK
6
CONTINUOUS
10
129.75
20
-72.2705
11
129.75
21
-72.1295
0
LINE
8
BLACK
6
CONTINUOUS
10
129.75
20
-72.1295
11
129.798
21
-71.9969
0
LINE
8
BLACK
6
CONTINUOUS
10
129.798
20
-71.9969
11
129.889
21
-71.8889
0
LINE
8
BLACK
6
CONTINUOUS
10
129.889
20
-71.8889
11
130.011
21
-71.8183
0
LINE
8
BLACK
6
CONTINUOUS
10
130.011
20
-71.8183
11
130.115
21
-71.8
0
LINE
8
BLACK
6
CONTINUOUS
10
130.115
20
-71.8
11
131.885
21
-71.8
0
LINE
8
BLACK
6
CONTINUOUS
10
131.885
20
-71.8
11
131.989
21
-71.8183
0
LINE
8
BLACK
6
CONTINUOUS
10
162.989
20
-71.8183
11
163.111
21
-71.8889
0
LINE
8
BLACK
6
CONTINUOUS
10
163.111
20
-71.8889
11
163.202
21
-71.9969
0
LINE
8
BLACK
6
CONTINUOUS
10
163.202
20
-71.9969
11
163.25
21
-72.1295
0
LINE
8
BLACK
6
CONTINUOUS
10
163.25
20
-72.1295
11
163.25
21
-72.2705
0
LINE
8
BLACK
6
CONTINUOUS
10
163.25
20
-72.2705
11
163.202
21
-72.4031
0
LINE
8
BLACK
6
CONTINUOUS
10
163.202
20
-72.4031
11
163.111
21
-72.5111
0
LINE
8
BLACK
6
CONTINUOUS
10
163.111
20
-72.5111
11
162.989
21
-72.5817
0
LINE
8
BLACK
6
CONTINUOUS
10
162.989
20
-72.5817
11
162.885
21
-72.6
0
LINE
8
BLACK
6
CONTINUOUS
10
162.885
20
-72.6
11
161.115
21
-72.6
0
LINE
8
BLACK
6
CONTINUOUS
10
161.115
20
-72.6
11
161.011
21
-72.5817
0
LINE
8
BLACK
6
CONTINUOUS
10
161.011
20
-72.5817
11
160.889
21
-72.5111
0
LINE
8
BLACK
6
CONTINUOUS
10
160.889
20
-72.5111
11
160.798
21
-72.4031
0
LINE
8
BLACK
6
CONTINUOUS
10
160.798
20
-72.4031
11
160.75
21
-72.2705
0
LINE
8
BLACK
6
CONTINUOUS
10
160.75
20
-72.2705
11
160.75
21
-72.1295
0
LINE
8
BLACK
6
CONTINUOUS
10
160.75
20
-72.1295
11
160.798
21
-71.9969
0
LINE
8
BLACK
6
CONTINUOUS
10
160.798
20
-71.9969
11
160.889
21
-71.8889
0
LINE
8
BLACK
6
CONTINUOUS
10
160.889
20
-71.8889
11
161.011
21
-71.8183
0
LINE
8
BLACK
6
CONTINUOUS
10
161.011
20
-71.8183
11
161.115
21
-71.8
0
LINE
8
BLACK
6
CONTINUOUS
10
161.115
20
-71.8
11
162.885
21
-71.8
0
LINE
8
BLACK
6
CONTINUOUS
10
162.885
20
-71.8
11
162.989
21
-71.8183
0
LINE
8
BLACK
6
CONTINUOUS
10
131.989
20
-70.5183
11
132.111
21
-70.5889
0
LINE
8
BLACK
6
CONTINUOUS
10
132.111
20
-70.5889
11
132.202
21
-70.6969
0
LINE
8
BLACK
6
CONTINUOUS
10
132.202
20
-70.6969
11
132.25
21
-70.8295
0
LINE
8
BLACK
6
CONTINUOUS
10
132.25
20
-70.8295
11
132.25
21
-70.9705
0
LINE
8
BLACK
6
CONTINUOUS
10
132.25
20
-70.9705
11
132.202
21
-71.1031
0
LINE
8
BLACK
6
CONTINUOUS
10
132.202
20
-71.1031
11
132.111
21
-71.2111
0
LINE
8
BLACK
6
CONTINUOUS
10
132.111
20
-71.2111
11
131.989
21
-71.2817
0
LINE
8
BLACK
6
CONTINUOUS
10
131.989
20
-71.2817
11
131.885
21
-71.3
0
LINE
8
BLACK
6
CONTINUOUS
10
131.885
20
-71.3
11
130.115
21
-71.3
0
LINE
8
BLACK
6
CONTINUOUS
10
130.115
20
-71.3
11
130.011
21
-71.2817
0
LINE
8
BLACK
6
CONTINUOUS
10
130.011
20
-71.2817
11
129.889
21
-71.2111
0
LINE
8
BLACK
6
CONTINUOUS
10
129.889
20
-71.2111
11
129.798
21
-71.1031
0
LINE
8
BLACK
6
CONTINUOUS
10
129.798
20
-71.1031
11
129.75
21
-70.9705
0
LINE
8
BLACK
6
CONTINUOUS
10
129.75
20
-70.9705
11
129.75
21
-70.8295
0
LINE
8
BLACK
6
CONTINUOUS
10
129.75
20
-70.8295
11
129.798
21
-70.6969
0
LINE
8
BLACK
6
CONTINUOUS
10
129.798
20
-70.6969
11
129.889
21
-70.5889
0
LINE
8
BLACK
6
CONTINUOUS
10
129.889
20
-70.5889
11
130.011
21
-70.5183
0
LINE
8
BLACK
6
CONTINUOUS
10
130.011
20
-70.5183
11
130.115
21
-70.5
0
LINE
8
BLACK
6
CONTINUOUS
10
130.115
20
-70.5
11
131.885
21
-70.5
0
LINE
8
BLACK
6
CONTINUOUS
10
131.885
20
-70.5
11
131.989
21
-70.5183
0
LINE
8
BLACK
6
CONTINUOUS
10
162.989
20
-70.5183
11
163.111
21
-70.5889
0
LINE
8
BLACK
6
CONTINUOUS
10
163.111
20
-70.5889
11
163.202
21
-70.6969
0
LINE
8
BLACK
6
CONTINUOUS
10
163.202
20
-70.6969
11
163.25
21
-70.8295
0
LINE
8
BLACK
6
CONTINUOUS
10
163.25
20
-70.8295
11
163.25
21
-70.9705
0
LINE
8
BLACK
6
CONTINUOUS
10
163.25
20
-70.9705
11
163.202
21
-71.1031
0
LINE
8
BLACK
6
CONTINUOUS
10
163.202
20
-71.1031
11
163.111
21
-71.2111
0
LINE
8
BLACK
6
CONTINUOUS
10
163.111
20
-71.2111
11
162.989
21
-71.2817
0
LINE
8
BLACK
6
CONTINUOUS
10
162.989
20
-71.2817
11
162.885
21
-71.3
0
LINE
8
BLACK
6
CONTINUOUS
10
162.885
20
-71.3
11
161.115
21
-71.3
0
LINE
8
BLACK
6
CONTINUOUS
10
161.115
20
-71.3
11
161.011
21
-71.2817
0
LINE
8
BLACK
6
CONTINUOUS
10
161.011
20
-71.2817
11
160.889
21
-71.2111
0
LINE
8
BLACK
6
CONTINUOUS
10
160.889
20
-71.2111
11
160.798
21
-71.1031
0
LINE
8
BLACK
6
CONTINUOUS
10
160.798
20
-71.1031
11
160.75
21
-70.9705
0
LINE
8
BLACK
6
CONTINUOUS
10
160.75
20
-70.9705
11
160.75
21
-70.8295
0
LINE
8
BLACK
6
CONTINUOUS
10
160.75
20
-70.8295
11
160.798
21
-70.6969
0
LINE
8
BLACK
6
CONTINUOUS
10
160.798
20
-70.6969
11
160.889
21
-70.5889
0
LINE
8
BLACK
6
CONTINUOUS
10
160.889
20
-70.5889
11
161.011
21
-70.5183
0
LINE
8
BLACK
6
CONTINUOUS
10
161.011
20
-70.5183
11
161.115
21
-70.5
0
LINE
8
BLACK
6
CONTINUOUS
10
161.115
20
-70.5
11
162.885
21
-70.5
0
LINE
8
BLACK
6
CONTINUOUS
10
162.885
20
-70.5
11
162.989
21
-70.5183
0
LINE
8
BLACK
6
CONTINUOUS
10
157.953
20
-68.2982
11
158.061
21
-68.3889
0
LINE
8
BLACK
6
CONTINUOUS
10
158.061
20
-68.3889
11
158.132
21
-68.5111
0
LINE
8
BLACK
6
CONTINUOUS
10
158.132
20
-68.5111
11
158.15
21
-68.615
0
LINE
8
BLACK
6
CONTINUOUS
10
158.15
20
-68.615
11
158.15
21
-70.385
0
LINE
8
BLACK
6
CONTINUOUS
10
158.15
20
-70.385
11
158.132
21
-70.4889
0
LINE
8
BLACK
6
CONTINUOUS
10
158.132
20
-70.4889
11
158.061
21
-70.6111
0
LINE
8
BLACK
6
CONTINUOUS
10
158.061
20
-70.6111
11
157.953
21
-70.7018
0
LINE
8
BLACK
6
CONTINUOUS
10
157.953
20
-70.7018
11
157.821
21
-70.75
0
LINE
8
BLACK
6
CONTINUOUS
10
157.821
20
-70.75
11
157.679
21
-70.75
0
LINE
8
BLACK
6
CONTINUOUS
10
157.679
20
-70.75
11
157.547
21
-70.7018
0
LINE
8
BLACK
6
CONTINUOUS
10
157.547
20
-70.7018
11
157.439
21
-70.6111
0
LINE
8
BLACK
6
CONTINUOUS
10
157.439
20
-70.6111
11
157.368
21
-70.4889
0
LINE
8
BLACK
6
CONTINUOUS
10
157.368
20
-70.4889
11
157.35
21
-70.385
0
LINE
8
BLACK
6
CONTINUOUS
10
157.35
20
-70.385
11
157.35
21
-68.615
0
LINE
8
BLACK
6
CONTINUOUS
10
157.35
20
-68.615
11
157.368
21
-68.5111
0
LINE
8
BLACK
6
CONTINUOUS
10
157.368
20
-68.5111
11
157.439
21
-68.3889
0
LINE
8
BLACK
6
CONTINUOUS
10
157.439
20
-68.3889
11
157.547
21
-68.2982
0
LINE
8
BLACK
6
CONTINUOUS
10
157.547
20
-68.2982
11
157.679
21
-68.25
0
LINE
8
BLACK
6
CONTINUOUS
10
157.679
20
-68.25
11
157.821
21
-68.25
0
LINE
8
BLACK
6
CONTINUOUS
10
157.821
20
-68.25
11
157.953
21
-68.2982
0
LINE
8
BLACK
6
CONTINUOUS
10
134.553
20
-68.2982
11
134.661
21
-68.3889
0
LINE
8
BLACK
6
CONTINUOUS
10
134.661
20
-68.3889
11
134.732
21
-68.5111
0
LINE
8
BLACK
6
CONTINUOUS
10
134.732
20
-68.5111
11
134.75
21
-68.615
0
LINE
8
BLACK
6
CONTINUOUS
10
134.75
20
-68.615
11
134.75
21
-70.385
0
LINE
8
BLACK
6
CONTINUOUS
10
134.75
20
-70.385
11
134.732
21
-70.4889
0
LINE
8
BLACK
6
CONTINUOUS
10
134.732
20
-70.4889
11
134.661
21
-70.6111
0
LINE
8
BLACK
6
CONTINUOUS
10
134.661
20
-70.6111
11
134.553
21
-70.7018
0
LINE
8
BLACK
6
CONTINUOUS
10
134.553
20
-70.7018
11
134.421
21
-70.75
0
LINE
8
BLACK
6
CONTINUOUS
10
134.421
20
-70.75
11
134.279
21
-70.75
0
LINE
8
BLACK
6
CONTINUOUS
10
134.279
20
-70.75
11
134.147
21
-70.7018
0
LINE
8
BLACK
6
CONTINUOUS
10
134.147
20
-70.7018
11
134.039
21
-70.6111
0
LINE
8
BLACK
6
CONTINUOUS
10
134.039
20
-70.6111
11
133.968
21
-70.4889
0
LINE
8
BLACK
6
CONTINUOUS
10
133.968
20
-70.4889
11
133.95
21
-70.385
0
LINE
8
BLACK
6
CONTINUOUS
10
133.95
20
-70.385
11
133.95
21
-68.615
0
LINE
8
BLACK
6
CONTINUOUS
10
133.95
20
-68.615
11
133.968
21
-68.5111
0
LINE
8
BLACK
6
CONTINUOUS
10
133.968
20
-68.5111
11
134.039
21
-68.3889
0
LINE
8
BLACK
6
CONTINUOUS
10
134.039
20
-68.3889
11
134.147
21
-68.2982
0
LINE
8
BLACK
6
CONTINUOUS
10
134.147
20
-68.2982
11
134.279
21
-68.25
0
LINE
8
BLACK
6
CONTINUOUS
10
134.279
20
-68.25
11
134.421
21
-68.25
0
LINE
8
BLACK
6
CONTINUOUS
10
134.421
20
-68.25
11
134.553
21
-68.2982
0
LINE
8
BLACK
6
CONTINUOUS
10
135.853
20
-68.2982
11
135.961
21
-68.3889
0
LINE
8
BLACK
6
CONTINUOUS
10
135.961
20
-68.3889
11
136.032
21
-68.5111
0
LINE
8
BLACK
6
CONTINUOUS
10
136.032
20
-68.5111
11
136.05
21
-68.615
0
LINE
8
BLACK
6
CONTINUOUS
10
136.05
20
-68.615
11
136.05
21
-70.385
0
LINE
8
BLACK
6
CONTINUOUS
10
136.05
20
-70.385
11
136.032
21
-70.4889
0
LINE
8
BLACK
6
CONTINUOUS
10
136.032
20
-70.4889
11
135.961
21
-70.6111
0
LINE
8
BLACK
6
CONTINUOUS
10
135.961
20
-70.6111
11
135.853
21
-70.7018
0
LINE
8
BLACK
6
CONTINUOUS
10
135.853
20
-70.7018
11
135.721
21
-70.75
0
LINE
8
BLACK
6
CONTINUOUS
10
135.721
20
-70.75
11
135.579
21
-70.75
0
LINE
8
BLACK
6
CONTINUOUS
10
135.579
20
-70.75
11
135.447
21
-70.7018
0
LINE
8
BLACK
6
CONTINUOUS
10
135.447
20
-70.7018
11
135.339
21
-70.6111
0
LINE
8
BLACK
6
CONTINUOUS
10
135.339
20
-70.6111
11
135.268
21
-70.4889
0
LINE
8
BLACK
6
CONTINUOUS
10
135.268
20
-70.4889
11
135.25
21
-70.385
0
LINE
8
BLACK
6
CONTINUOUS
10
135.25
20
-70.385
11
135.25
21
-68.615
0
LINE
8
BLACK
6
CONTINUOUS
10
135.25
20
-68.615
11
135.268
21
-68.5111
0
LINE
8
BLACK
6
CONTINUOUS
10
135.268
20
-68.5111
11
135.339
21
-68.3889
0
LINE
8
BLACK
6
CONTINUOUS
10
135.339
20
-68.3889
11
135.447
21
-68.2982
0
LINE
8
BLACK
6
CONTINUOUS
10
135.447
20
-68.2982
11
135.579
21
-68.25
0
LINE
8
BLACK
6
CONTINUOUS
10
135.579
20
-68.25
11
135.721
21
-68.25
0
LINE
8
BLACK
6
CONTINUOUS
10
135.721
20
-68.25
11
135.853
21
-68.2982
0
LINE
8
BLACK
6
CONTINUOUS
10
137.153
20
-68.2982
11
137.261
21
-68.3889
0
LINE
8
BLACK
6
CONTINUOUS
10
137.261
20
-68.3889
11
137.332
21
-68.5111
0
LINE
8
BLACK
6
CONTINUOUS
10
137.332
20
-68.5111
11
137.35
21
-68.615
0
LINE
8
BLACK
6
CONTINUOUS
10
137.35
20
-68.615
11
137.35
21
-70.385
0
LINE
8
BLACK
6
CONTINUOUS
10
137.35
20
-70.385
11
137.332
21
-70.4889
0
LINE
8
BLACK
6
CONTINUOUS
10
137.332
20
-70.4889
11
137.261
21
-70.6111
0
LINE
8
BLACK
6
CONTINUOUS
10
137.261
20
-70.6111
11
137.153
21
-70.7018
0
LINE
8
BLACK
6
CONTINUOUS
10
137.153
20
-70.7018
11
137.021
21
-70.75
0
LINE
8
BLACK
6
CONTINUOUS
10
137.021
20
-70.75
11
136.879
21
-70.75
0
LINE
8
BLACK
6
CONTINUOUS
10
136.879
20
-70.75
11
136.747
21
-70.7018
0
LINE
8
BLACK
6
CONTINUOUS
10
136.747
20
-70.7018
11
136.639
21
-70.6111
0
LINE
8
BLACK
6
CONTINUOUS
10
136.639
20
-70.6111
11
136.568
21
-70.4889
0
LINE
8
BLACK
6
CONTINUOUS
10
136.568
20
-70.4889
11
136.55
21
-70.385
0
LINE
8
BLACK
6
CONTINUOUS
10
136.55
20
-70.385
11
136.55
21
-68.615
0
LINE
8
BLACK
6
CONTINUOUS
10
136.55
20
-68.615
11
136.568
21
-68.5111
0
LINE
8
BLACK
6
CONTINUOUS
10
136.568
20
-68.5111
11
136.639
21
-68.3889
0
LINE
8
BLACK
6
CONTINUOUS
10
136.639
20
-68.3889
11
136.747
21
-68.2982
0
LINE
8
BLACK
6
CONTINUOUS
10
136.747
20
-68.2982
11
136.879
21
-68.25
0
LINE
8
BLACK
6
CONTINUOUS
10
136.879
20
-68.25
11
137.021
21
-68.25
0
LINE
8
BLACK
6
CONTINUOUS
10
137.021
20
-68.25
11
137.153
21
-68.2982
0
LINE
8
BLACK
6
CONTINUOUS
10
138.453
20
-68.2982
11
138.561
21
-68.3889
0
LINE
8
BLACK
6
CONTINUOUS
10
138.561
20
-68.3889
11
138.632
21
-68.5111
0
LINE
8
BLACK
6
CONTINUOUS
10
138.632
20
-68.5111
11
138.65
21
-68.615
0
LINE
8
BLACK
6
CONTINUOUS
10
138.65
20
-68.615
11
138.65
21
-70.385
0
LINE
8
BLACK
6
CONTINUOUS
10
138.65
20
-70.385
11
138.632
21
-70.4889
0
LINE
8
BLACK
6
CONTINUOUS
10
138.632
20
-70.4889
11
138.561
21
-70.6111
0
LINE
8
BLACK
6
CONTINUOUS
10
138.561
20
-70.6111
11
138.453
21
-70.7018
0
LINE
8
BLACK
6
CONTINUOUS
10
138.453
20
-70.7018
11
138.321
21
-70.75
0
LINE
8
BLACK
6
CONTINUOUS
10
138.321
20
-70.75
11
138.179
21
-70.75
0
LINE
8
BLACK
6
CONTINUOUS
10
138.179
20
-70.75
11
138.047
21
-70.7018
0
LINE
8
BLACK
6
CONTINUOUS
10
138.047
20
-70.7018
11
137.939
21
-70.6111
0
LINE
8
BLACK
6
CONTINUOUS
10
137.939
20
-70.6111
11
137.868
21
-70.4889
0
LINE
8
BLACK
6
CONTINUOUS
10
137.868
20
-70.4889
11
137.85
21
-70.385
0
LINE
8
BLACK
6
CONTINUOUS
10
137.85
20
-70.385
11
137.85
21
-68.615
0
LINE
8
BLACK
6
CONTINUOUS
10
137.85
20
-68.615
11
137.868
21
-68.5111
0
LINE
8
BLACK
6
CONTINUOUS
10
137.868
20
-68.5111
11
137.939
21
-68.3889
0
LINE
8
BLACK
6
CONTINUOUS
10
137.939
20
-68.3889
11
138.047
21
-68.2982
0
LINE
8
BLACK
6
CONTINUOUS
10
138.047
20
-68.2982
11
138.179
21
-68.25
0
LINE
8
BLACK
6
CONTINUOUS
10
138.179
20
-68.25
11
138.321
21
-68.25
0
LINE
8
BLACK
6
CONTINUOUS
10
138.321
20
-68.25
11
138.453
21
-68.2982
0
LINE
8
BLACK
6
CONTINUOUS
10
139.753
20
-68.2982
11
139.861
21
-68.3889
0
LINE
8
BLACK
6
CONTINUOUS
10
139.861
20
-68.3889
11
139.932
21
-68.5111
0
LINE
8
BLACK
6
CONTINUOUS
10
139.932
20
-68.5111
11
139.95
21
-68.615
0
LINE
8
BLACK
6
CONTINUOUS
10
139.95
20
-68.615
11
139.95
21
-70.385
0
LINE
8
BLACK
6
CONTINUOUS
10
139.95
20
-70.385
11
139.932
21
-70.4889
0
LINE
8
BLACK
6
CONTINUOUS
10
139.932
20
-70.4889
11
139.861
21
-70.6111
0
LINE
8
BLACK
6
CONTINUOUS
10
139.861
20
-70.6111
11
139.753
21
-70.7018
0
LINE
8
BLACK
6
CONTINUOUS
10
139.753
20
-70.7018
11
139.621
21
-70.75
0
LINE
8
BLACK
6
CONTINUOUS
10
139.621
20
-70.75
11
139.479
21
-70.75
0
LINE
8
BLACK
6
CONTINUOUS
10
139.479
20
-70.75
11
139.347
21
-70.7018
0
LINE
8
BLACK
6
CONTINUOUS
10
139.347
20
-70.7018
11
139.239
21
-70.6111
0
LINE
8
BLACK
6
CONTINUOUS
10
139.239
20
-70.6111
11
139.168
21
-70.4889
0
LINE
8
BLACK
6
CONTINUOUS
10
139.168
20
-70.4889
11
139.15
21
-70.385
0
LINE
8
BLACK
6
CONTINUOUS
10
139.15
20
-70.385
11
139.15
21
-68.615
0
LINE
8
BLACK
6
CONTINUOUS
10
139.15
20
-68.615
11
139.168
21
-68.5111
0
LINE
8
BLACK
6
CONTINUOUS
10
139.168
20
-68.5111
11
139.239
21
-68.3889
0
LINE
8
BLACK
6
CONTINUOUS
10
139.239
20
-68.3889
11
139.347
21
-68.2982
0
LINE
8
BLACK
6
CONTINUOUS
10
139.347
20
-68.2982
11
139.479
21
-68.25
0
LINE
8
BLACK
6
CONTINUOUS
10
139.479
20
-68.25
11
139.621
21
-68.25
0
LINE
8
BLACK
6
CONTINUOUS
10
139.621
20
-68.25
11
139.753
21
-68.2982
0
LINE
8
BLACK
6
CONTINUOUS
10
141.053
20
-68.2982
11
141.161
21
-68.3889
0
LINE
8
BLACK
6
CONTINUOUS
10
141.161
20
-68.3889
11
141.232
21
-68.5111
0
LINE
8
BLACK
6
CONTINUOUS
10
141.232
20
-68.5111
11
141.25
21
-68.615
0
LINE
8
BLACK
6
CONTINUOUS
10
141.25
20
-68.615
11
141.25
21
-70.385
0
LINE
8
BLACK
6
CONTINUOUS
10
141.25
20
-70.385
11
141.232
21
-70.4889
0
LINE
8
BLACK
6
CONTINUOUS
10
141.232
20
-70.4889
11
141.161
21
-70.6111
0
LINE
8
BLACK
6
CONTINUOUS
10
141.161
20
-70.6111
11
141.053
21
-70.7018
0
LINE
8
BLACK
6
CONTINUOUS
10
141.053
20
-70.7018
11
140.921
21
-70.75
0
LINE
8
BLACK
6
CONTINUOUS
10
140.921
20
-70.75
11
140.779
21
-70.75
0
LINE
8
BLACK
6
CONTINUOUS
10
140.779
20
-70.75
11
140.647
21
-70.7018
0
LINE
8
BLACK
6
CONTINUOUS
10
140.647
20
-70.7018
11
140.539
21
-70.6111
0
LINE
8
BLACK
6
CONTINUOUS
10
140.539
20
-70.6111
11
140.468
21
-70.4889
0
LINE
8
BLACK
6
CONTINUOUS
10
140.468
20
-70.4889
11
140.45
21
-70.385
0
LINE
8
BLACK
6
CONTINUOUS
10
140.45
20
-70.385
11
140.45
21
-68.615
0
LINE
8
BLACK
6
CONTINUOUS
10
140.45
20
-68.615
11
140.468
21
-68.5111
0
LINE
8
BLACK
6
CONTINUOUS
10
140.468
20
-68.5111
11
140.539
21
-68.3889
0
LINE
8
BLACK
6
CONTINUOUS
10
140.539
20
-68.3889
11
140.647
21
-68.2982
0
LINE
8
BLACK
6
CONTINUOUS
10
140.647
20
-68.2982
11
140.779
21
-68.25
0
LINE
8
BLACK
6
CONTINUOUS
10
140.779
20
-68.25
11
140.921
21
-68.25
0
LINE
8
BLACK
6
CONTINUOUS
10
140.921
20
-68.25
11
141.053
21
-68.2982
0
LINE
8
BLACK
6
CONTINUOUS
10
143.653
20
-68.2982
11
143.761
21
-68.3889
0
LINE
8
BLACK
6
CONTINUOUS
10
143.761
20
-68.3889
11
143.832
21
-68.5111
0
LINE
8
BLACK
6
CONTINUOUS
10
143.832
20
-68.5111
11
143.85
21
-68.615
0
LINE
8
BLACK
6
CONTINUOUS
10
143.85
20
-68.615
11
143.85
21
-70.385
0
LINE
8
BLACK
6
CONTINUOUS
10
143.85
20
-70.385
11
143.832
21
-70.4889
0
LINE
8
BLACK
6
CONTINUOUS
10
143.832
20
-70.4889
11
143.761
21
-70.6111
0
LINE
8
BLACK
6
CONTINUOUS
10
143.761
20
-70.6111
11
143.653
21
-70.7018
0
LINE
8
BLACK
6
CONTINUOUS
10
143.653
20
-70.7018
11
143.521
21
-70.75
0
LINE
8
BLACK
6
CONTINUOUS
10
143.521
20
-70.75
11
143.379
21
-70.75
0
LINE
8
BLACK
6
CONTINUOUS
10
143.379
20
-70.75
11
143.247
21
-70.7018
0
LINE
8
BLACK
6
CONTINUOUS
10
143.247
20
-70.7018
11
143.139
21
-70.6111
0
LINE
8
BLACK
6
CONTINUOUS
10
143.139
20
-70.6111
11
143.068
21
-70.4889
0
LINE
8
BLACK
6
CONTINUOUS
10
143.068
20
-70.4889
11
143.05
21
-70.385
0
LINE
8
BLACK
6
CONTINUOUS
10
143.05
20
-70.385
11
143.05
21
-68.615
0
LINE
8
BLACK
6
CONTINUOUS
10
143.05
20
-68.615
11
143.068
21
-68.5111
0
LINE
8
BLACK
6
CONTINUOUS
10
143.068
20
-68.5111
11
143.139
21
-68.3889
0
LINE
8
BLACK
6
CONTINUOUS
10
143.139
20
-68.3889
11
143.247
21
-68.2982
0
LINE
8
BLACK
6
CONTINUOUS
10
143.247
20
-68.2982
11
143.379
21
-68.25
0
LINE
8
BLACK
6
CONTINUOUS
10
143.379
20
-68.25
11
143.521
21
-68.25
0
LINE
8
BLACK
6
CONTINUOUS
10
143.521
20
-68.25
11
143.653
21
-68.2982
0
LINE
8
BLACK
6
CONTINUOUS
10
159.253
20
-68.2982
11
159.361
21
-68.3889
0
LINE
8
BLACK
6
CONTINUOUS
10
159.361
20
-68.3889
11
159.432
21
-68.5111
0
LINE
8
BLACK
6
CONTINUOUS
10
159.432
20
-68.5111
11
159.45
21
-68.615
0
LINE
8
BLACK
6
CONTINUOUS
10
159.45
20
-68.615
11
159.45
21
-70.385
0
LINE
8
BLACK
6
CONTINUOUS
10
159.45
20
-70.385
11
159.432
21
-70.4889
0
LINE
8
BLACK
6
CONTINUOUS
10
159.432
20
-70.4889
11
159.361
21
-70.6111
0
LINE
8
BLACK
6
CONTINUOUS
10
159.361
20
-70.6111
11
159.253
21
-70.7018
0
LINE
8
BLACK
6
CONTINUOUS
10
159.253
20
-70.7018
11
159.121
21
-70.75
0
LINE
8
BLACK
6
CONTINUOUS
10
159.121
20
-70.75
11
158.979
21
-70.75
0
LINE
8
BLACK
6
CONTINUOUS
10
158.979
20
-70.75
11
158.847
21
-70.7018
0
LINE
8
BLACK
6
CONTINUOUS
10
158.847
20
-70.7018
11
158.739
21
-70.6111
0
LINE
8
BLACK
6
CONTINUOUS
10
158.739
20
-70.6111
11
158.668
21
-70.4889
0
LINE
8
BLACK
6
CONTINUOUS
10
158.668
20
-70.4889
11
158.65
21
-70.385
0
LINE
8
BLACK
6
CONTINUOUS
10
158.65
20
-70.385
11
158.65
21
-68.615
0
LINE
8
BLACK
6
CONTINUOUS
10
158.65
20
-68.615
11
158.668
21
-68.5111
0
LINE
8
BLACK
6
CONTINUOUS
10
158.668
20
-68.5111
11
158.739
21
-68.3889
0
LINE
8
BLACK
6
CONTINUOUS
10
158.739
20
-68.3889
11
158.847
21
-68.2982
0
LINE
8
BLACK
6
CONTINUOUS
10
158.847
20
-68.2982
11
158.979
21
-68.25
0
LINE
8
BLACK
6
CONTINUOUS
10
158.979
20
-68.25
11
159.121
21
-68.25
0
LINE
8
BLACK
6
CONTINUOUS
10
159.121
20
-68.25
11
159.253
21
-68.2982
0
LINE
8
BLACK
6
CONTINUOUS
10
142.353
20
-68.2982
11
142.461
21
-68.3889
0
LINE
8
BLACK
6
CONTINUOUS
10
142.461
20
-68.3889
11
142.532
21
-68.5111
0
LINE
8
BLACK
6
CONTINUOUS
10
142.532
20
-68.5111
11
142.55
21
-68.615
0
LINE
8
BLACK
6
CONTINUOUS
10
142.55
20
-68.615
11
142.55
21
-70.385
0
LINE
8
BLACK
6
CONTINUOUS
10
142.55
20
-70.385
11
142.532
21
-70.4889
0
LINE
8
BLACK
6
CONTINUOUS
10
142.532
20
-70.4889
11
142.461
21
-70.6111
0
LINE
8
BLACK
6
CONTINUOUS
10
142.461
20
-70.6111
11
142.353
21
-70.7018
0
LINE
8
BLACK
6
CONTINUOUS
10
142.353
20
-70.7018
11
142.221
21
-70.75
0
LINE
8
BLACK
6
CONTINUOUS
10
142.221
20
-70.75
11
142.079
21
-70.75
0
LINE
8
BLACK
6
CONTINUOUS
10
142.079
20
-70.75
11
141.947
21
-70.7018
0
LINE
8
BLACK
6
CONTINUOUS
10
141.947
20
-70.7018
11
141.839
21
-70.6111
0
LINE
8
BLACK
6
CONTINUOUS
10
141.839
20
-70.6111
11
141.768
21
-70.4889
0
LINE
8
BLACK
6
CONTINUOUS
10
141.768
20
-70.4889
11
141.75
21
-70.385
0
LINE
8
BLACK
6
CONTINUOUS
10
141.75
20
-70.385
11
141.75
21
-68.615
0
LINE
8
BLACK
6
CONTINUOUS
10
141.75
20
-68.615
11
141.768
21
-68.5111
0
LINE
8
BLACK
6
CONTINUOUS
10
141.768
20
-68.5111
11
141.839
21
-68.3889
0
LINE
8
BLACK
6
CONTINUOUS
10
141.839
20
-68.3889
11
141.947
21
-68.2982
0
LINE
8
BLACK
6
CONTINUOUS
10
141.947
20
-68.2982
11
142.079
21
-68.25
0
LINE
8
BLACK
6
CONTINUOUS
10
142.079
20
-68.25
11
142.221
21
-68.25
0
LINE
8
BLACK
6
CONTINUOUS
10
142.221
20
-68.25
11
142.353
21
-68.2982
0
LINE
8
BLACK
6
CONTINUOUS
10
156.653
20
-68.2982
11
156.761
21
-68.3889
0
LINE
8
BLACK
6
CONTINUOUS
10
156.761
20
-68.3889
11
156.832
21
-68.5111
0
LINE
8
BLACK
6
CONTINUOUS
10
156.832
20
-68.5111
11
156.85
21
-68.615
0
LINE
8
BLACK
6
CONTINUOUS
10
156.85
20
-68.615
11
156.85
21
-70.385
0
LINE
8
BLACK
6
CONTINUOUS
10
156.85
20
-70.385
11
156.832
21
-70.4889
0
LINE
8
BLACK
6
CONTINUOUS
10
156.832
20
-70.4889
11
156.761
21
-70.6111
0
LINE
8
BLACK
6
CONTINUOUS
10
156.761
20
-70.6111
11
156.653
21
-70.7018
0
LINE
8
BLACK
6
CONTINUOUS
10
156.653
20
-70.7018
11
156.521
21
-70.75
0
LINE
8
BLACK
6
CONTINUOUS
10
156.521
20
-70.75
11
156.379
21
-70.75
0
LINE
8
BLACK
6
CONTINUOUS
10
156.379
20
-70.75
11
156.247
21
-70.7018
0
LINE
8
BLACK
6
CONTINUOUS
10
156.247
20
-70.7018
11
156.139
21
-70.6111
0
LINE
8
BLACK
6
CONTINUOUS
10
156.139
20
-70.6111
11
156.068
21
-70.4889
0
LINE
8
BLACK
6
CONTINUOUS
10
156.068
20
-70.4889
11
156.05
21
-70.385
0
LINE
8
BLACK
6
CONTINUOUS
10
156.05
20
-70.385
11
156.05
21
-68.615
0
LINE
8
BLACK
6
CONTINUOUS
10
156.05
20
-68.615
11
156.068
21
-68.5111
0
LINE
8
BLACK
6
CONTINUOUS
10
156.068
20
-68.5111
11
156.139
21
-68.3889
0
LINE
8
BLACK
6
CONTINUOUS
10
156.139
20
-68.3889
11
156.247
21
-68.2982
0
LINE
8
BLACK
6
CONTINUOUS
10
156.247
20
-68.2982
11
156.379
21
-68.25
0
LINE
8
BLACK
6
CONTINUOUS
10
156.379
20
-68.25
11
156.521
21
-68.25
0
LINE
8
BLACK
6
CONTINUOUS
10
156.521
20
-68.25
11
156.653
21
-68.2982
0
LINE
8
BLACK
6
CONTINUOUS
10
155.353
20
-68.2982
11
155.461
21
-68.3889
0
LINE
8
BLACK
6
CONTINUOUS
10
155.461
20
-68.3889
11
155.532
21
-68.5111
0
LINE
8
BLACK
6
CONTINUOUS
10
155.532
20
-68.5111
11
155.55
21
-68.615
0
LINE
8
BLACK
6
CONTINUOUS
10
155.55
20
-68.615
11
155.55
21
-70.385
0
LINE
8
BLACK
6
CONTINUOUS
10
155.55
20
-70.385
11
155.532
21
-70.4889
0
LINE
8
BLACK
6
CONTINUOUS
10
155.532
20
-70.4889
11
155.461
21
-70.6111
0
LINE
8
BLACK
6
CONTINUOUS
10
155.461
20
-70.6111
11
155.353
21
-70.7018
0
LINE
8
BLACK
6
CONTINUOUS
10
155.353
20
-70.7018
11
155.221
21
-70.75
0
LINE
8
BLACK
6
CONTINUOUS
10
155.221
20
-70.75
11
155.079
21
-70.75
0
LINE
8
BLACK
6
CONTINUOUS
10
155.079
20
-70.75
11
154.947
21
-70.7018
0
LINE
8
BLACK
6
CONTINUOUS
10
154.947
20
-70.7018
11
154.839
21
-70.6111
0
LINE
8
BLACK
6
CONTINUOUS
10
154.839
20
-70.6111
11
154.768
21
-70.4889
0
LINE
8
BLACK
6
CONTINUOUS
10
154.768
20
-70.4889
11
154.75
21
-70.385
0
LINE
8
BLACK
6
CONTINUOUS
10
154.75
20
-70.385
11
154.75
21
-68.615
0
LINE
8
BLACK
6
CONTINUOUS
10
154.75
20
-68.615
11
154.768
21
-68.5111
0
LINE
8
BLACK
6
CONTINUOUS
10
154.768
20
-68.5111
11
154.839
21
-68.3889
0
LINE
8
BLACK
6
CONTINUOUS
10
154.839
20
-68.3889
11
154.947
21
-68.2982
0
LINE
8
BLACK
6
CONTINUOUS
10
154.947
20
-68.2982
11
155.079
21
-68.25
0
LINE
8
BLACK
6
CONTINUOUS
10
155.079
20
-68.25
11
155.221
21
-68.25
0
LINE
8
BLACK
6
CONTINUOUS
10
155.221
20
-68.25
11
155.353
21
-68.2982
0
LINE
8
BLACK
6
CONTINUOUS
10
154.053
20
-68.2982
11
154.161
21
-68.3889
0
LINE
8
BLACK
6
CONTINUOUS
10
154.161
20
-68.3889
11
154.232
21
-68.5111
0
LINE
8
BLACK
6
CONTINUOUS
10
154.232
20
-68.5111
11
154.25
21
-68.615
0
LINE
8
BLACK
6
CONTINUOUS
10
154.25
20
-68.615
11
154.25
21
-70.385
0
LINE
8
BLACK
6
CONTINUOUS
10
154.25
20
-70.385
11
154.232
21
-70.4889
0
LINE
8
BLACK
6
CONTINUOUS
10
154.232
20
-70.4889
11
154.161
21
-70.6111
0
LINE
8
BLACK
6
CONTINUOUS
10
154.161
20
-70.6111
11
154.053
21
-70.7018
0
LINE
8
BLACK
6
CONTINUOUS
10
154.053
20
-70.7018
11
153.921
21
-70.75
0
LINE
8
BLACK
6
CONTINUOUS
10
153.921
20
-70.75
11
153.779
21
-70.75
0
LINE
8
BLACK
6
CONTINUOUS
10
153.779
20
-70.75
11
153.647
21
-70.7018
0
LINE
8
BLACK
6
CONTINUOUS
10
153.647
20
-70.7018
11
153.539
21
-70.6111
0
LINE
8
BLACK
6
CONTINUOUS
10
153.539
20
-70.6111
11
153.468
21
-70.4889
0
LINE
8
BLACK
6
CONTINUOUS
10
153.468
20
-70.4889
11
153.45
21
-70.385
0
LINE
8
BLACK
6
CONTINUOUS
10
153.45
20
-70.385
11
153.45
21
-68.615
0
LINE
8
BLACK
6
CONTINUOUS
10
153.45
20
-68.615
11
153.468
21
-68.5111
0
LINE
8
BLACK
6
CONTINUOUS
10
153.468
20
-68.5111
11
153.539
21
-68.3889
0
LINE
8
BLACK
6
CONTINUOUS
10
153.539
20
-68.3889
11
153.647
21
-68.2982
0
LINE
8
BLACK
6
CONTINUOUS
10
153.647
20
-68.2982
11
153.779
21
-68.25
0
LINE
8
BLACK
6
CONTINUOUS
10
153.779
20
-68.25
11
153.921
21
-68.25
0
LINE
8
BLACK
6
CONTINUOUS
10
153.921
20
-68.25
11
154.053
21
-68.2982
0
LINE
8
BLACK
6
CONTINUOUS
10
152.753
20
-68.2982
11
152.861
21
-68.3889
0
LINE
8
BLACK
6
CONTINUOUS
10
152.861
20
-68.3889
11
152.932
21
-68.5111
0
LINE
8
BLACK
6
CONTINUOUS
10
152.932
20
-68.5111
11
152.95
21
-68.615
0
LINE
8
BLACK
6
CONTINUOUS
10
152.95
20
-68.615
11
152.95
21
-70.385
0
LINE
8
BLACK
6
CONTINUOUS
10
152.95
20
-70.385
11
152.932
21
-70.4889
0
LINE
8
BLACK
6
CONTINUOUS
10
152.932
20
-70.4889
11
152.861
21
-70.6111
0
LINE
8
BLACK
6
CONTINUOUS
10
152.861
20
-70.6111
11
152.753
21
-70.7018
0
LINE
8
BLACK
6
CONTINUOUS
10
152.753
20
-70.7018
11
152.621
21
-70.75
0
LINE
8
BLACK
6
CONTINUOUS
10
152.621
20
-70.75
11
152.479
21
-70.75
0
LINE
8
BLACK
6
CONTINUOUS
10
152.479
20
-70.75
11
152.347
21
-70.7018
0
LINE
8
BLACK
6
CONTINUOUS
10
152.347
20
-70.7018
11
152.239
21
-70.6111
0
LINE
8
BLACK
6
CONTINUOUS
10
152.239
20
-70.6111
11
152.168
21
-70.4889
0
LINE
8
BLACK
6
CONTINUOUS
10
152.168
20
-70.4889
11
152.15
21
-70.385
0
LINE
8
BLACK
6
CONTINUOUS
10
152.15
20
-70.385
11
152.15
21
-68.615
0
LINE
8
BLACK
6
CONTINUOUS
10
152.15
20
-68.615
11
152.168
21
-68.5111
0
LINE
8
BLACK
6
CONTINUOUS
10
152.168
20
-68.5111
11
152.239
21
-68.3889
0
LINE
8
BLACK
6
CONTINUOUS
10
152.239
20
-68.3889
11
152.347
21
-68.2982
0
LINE
8
BLACK
6
CONTINUOUS
10
152.347
20
-68.2982
11
152.479
21
-68.25
0
LINE
8
BLACK
6
CONTINUOUS
10
152.479
20
-68.25
11
152.621
21
-68.25
0
LINE
8
BLACK
6
CONTINUOUS
10
152.621
20
-68.25
11
152.753
21
-68.2982
0
LINE
8
BLACK
6
CONTINUOUS
10
151.453
20
-68.2982
11
151.561
21
-68.3889
0
LINE
8
BLACK
6
CONTINUOUS
10
151.561
20
-68.3889
11
151.632
21
-68.5111
0
LINE
8
BLACK
6
CONTINUOUS
10
151.632
20
-68.5111
11
151.65
21
-68.615
0
LINE
8
BLACK
6
CONTINUOUS
10
151.65
20
-68.615
11
151.65
21
-70.385
0
LINE
8
BLACK
6
CONTINUOUS
10
151.65
20
-70.385
11
151.632
21
-70.4889
0
LINE
8
BLACK
6
CONTINUOUS
10
151.632
20
-70.4889
11
151.561
21
-70.6111
0
LINE
8
BLACK
6
CONTINUOUS
10
151.561
20
-70.6111
11
151.453
21
-70.7018
0
LINE
8
BLACK
6
CONTINUOUS
10
151.453
20
-70.7018
11
151.321
21
-70.75
0
LINE
8
BLACK
6
CONTINUOUS
10
151.321
20
-70.75
11
151.179
21
-70.75
0
LINE
8
BLACK
6
CONTINUOUS
10
151.179
20
-70.75
11
151.047
21
-70.7018
0
LINE
8
BLACK
6
CONTINUOUS
10
151.047
20
-70.7018
11
150.939
21
-70.6111
0
LINE
8
BLACK
6
CONTINUOUS
10
150.939
20
-70.6111
11
150.868
21
-70.4889
0
LINE
8
BLACK
6
CONTINUOUS
10
150.868
20
-70.4889
11
150.85
21
-70.385
0
LINE
8
BLACK
6
CONTINUOUS
10
150.85
20
-70.385
11
150.85
21
-68.615
0
LINE
8
BLACK
6
CONTINUOUS
10
150.85
20
-68.615
11
150.868
21
-68.5111
0
LINE
8
BLACK
6
CONTINUOUS
10
150.868
20
-68.5111
11
150.939
21
-68.3889
0
LINE
8
BLACK
6
CONTINUOUS
10
150.939
20
-68.3889
11
151.047
21
-68.2982
0
LINE
8
BLACK
6
CONTINUOUS
10
151.047
20
-68.2982
11
151.179
21
-68.25
0
LINE
8
BLACK
6
CONTINUOUS
10
151.179
20
-68.25
11
151.321
21
-68.25
0
LINE
8
BLACK
6
CONTINUOUS
10
151.321
20
-68.25
11
151.453
21
-68.2982
0
LINE
8
BLACK
6
CONTINUOUS
10
144.953
20
-68.2982
11
145.061
21
-68.3889
0
LINE
8
BLACK
6
CONTINUOUS
10
145.061
20
-68.3889
11
145.132
21
-68.5111
0
LINE
8
BLACK
6
CONTINUOUS
10
145.132
20
-68.5111
11
145.15
21
-68.615
0
LINE
8
BLACK
6
CONTINUOUS
10
145.15
20
-68.615
11
145.15
21
-70.385
0
LINE
8
BLACK
6
CONTINUOUS
10
145.15
20
-70.385
11
145.132
21
-70.4889
0
LINE
8
BLACK
6
CONTINUOUS
10
145.132
20
-70.4889
11
145.061
21
-70.6111
0
LINE
8
BLACK
6
CONTINUOUS
10
145.061
20
-70.6111
11
144.953
21
-70.7018
0
LINE
8
BLACK
6
CONTINUOUS
10
144.953
20
-70.7018
11
144.821
21
-70.75
0
LINE
8
BLACK
6
CONTINUOUS
10
144.821
20
-70.75
11
144.679
21
-70.75
0
LINE
8
BLACK
6
CONTINUOUS
10
144.679
20
-70.75
11
144.547
21
-70.7018
0
LINE
8
BLACK
6
CONTINUOUS
10
144.547
20
-70.7018
11
144.439
21
-70.6111
0
LINE
8
BLACK
6
CONTINUOUS
10
144.439
20
-70.6111
11
144.368
21
-70.4889
0
LINE
8
BLACK
6
CONTINUOUS
10
144.368
20
-70.4889
11
144.35
21
-70.385
0
LINE
8
BLACK
6
CONTINUOUS
10
144.35
20
-70.385
11
144.35
21
-68.615
0
LINE
8
BLACK
6
CONTINUOUS
10
144.35
20
-68.615
11
144.368
21
-68.5111
0
LINE
8
BLACK
6
CONTINUOUS
10
144.368
20
-68.5111
11
144.439
21
-68.3889
0
LINE
8
BLACK
6
CONTINUOUS
10
144.439
20
-68.3889
11
144.547
21
-68.2982
0
LINE
8
BLACK
6
CONTINUOUS
10
144.547
20
-68.2982
11
144.679
21
-68.25
0
LINE
8
BLACK
6
CONTINUOUS
10
144.679
20
-68.25
11
144.821
21
-68.25
0
LINE
8
BLACK
6
CONTINUOUS
10
144.821
20
-68.25
11
144.953
21
-68.2982
0
LINE
8
BLACK
6
CONTINUOUS
10
146.253
20
-68.2982
11
146.361
21
-68.3889
0
LINE
8
BLACK
6
CONTINUOUS
10
146.361
20
-68.3889
11
146.432
21
-68.5111
0
LINE
8
BLACK
6
CONTINUOUS
10
146.432
20
-68.5111
11
146.45
21
-68.615
0
LINE
8
BLACK
6
CONTINUOUS
10
146.45
20
-68.615
11
146.45
21
-70.385
0
LINE
8
BLACK
6
CONTINUOUS
10
146.45
20
-70.385
11
146.432
21
-70.4889
0
LINE
8
BLACK
6
CONTINUOUS
10
146.432
20
-70.4889
11
146.361
21
-70.6111
0
LINE
8
BLACK
6
CONTINUOUS
10
146.361
20
-70.6111
11
146.253
21
-70.7018
0
LINE
8
BLACK
6
CONTINUOUS
10
146.253
20
-70.7018
11
146.121
21
-70.75
0
LINE
8
BLACK
6
CONTINUOUS
10
146.121
20
-70.75
11
145.979
21
-70.75
0
LINE
8
BLACK
6
CONTINUOUS
10
145.979
20
-70.75
11
145.847
21
-70.7018
0
LINE
8
BLACK
6
CONTINUOUS
10
145.847
20
-70.7018
11
145.739
21
-70.6111
0
LINE
8
BLACK
6
CONTINUOUS
10
145.739
20
-70.6111
11
145.668
21
-70.4889
0
LINE
8
BLACK
6
CONTINUOUS
10
145.668
20
-70.4889
11
145.65
21
-70.385
0
LINE
8
BLACK
6
CONTINUOUS
10
145.65
20
-70.385
11
145.65
21
-68.615
0
LINE
8
BLACK
6
CONTINUOUS
10
145.65
20
-68.615
11
145.668
21
-68.5111
0
LINE
8
BLACK
6
CONTINUOUS
10
145.668
20
-68.5111
11
145.739
21
-68.3889
0
LINE
8
BLACK
6
CONTINUOUS
10
145.739
20
-68.3889
11
145.847
21
-68.2982
0
LINE
8
BLACK
6
CONTINUOUS
10
145.847
20
-68.2982
11
145.979
21
-68.25
0
LINE
8
BLACK
6
CONTINUOUS
10
145.979
20
-68.25
11
146.121
21
-68.25
0
LINE
8
BLACK
6
CONTINUOUS
10
146.121
20
-68.25
11
146.253
21
-68.2982
0
LINE
8
BLACK
6
CONTINUOUS
10
147.553
20
-68.2982
11
147.661
21
-68.3889
0
LINE
8
BLACK
6
CONTINUOUS
10
147.661
20
-68.3889
11
147.732
21
-68.5111
0
LINE
8
BLACK
6
CONTINUOUS
10
147.732
20
-68.5111
11
147.75
21
-68.615
0
LINE
8
BLACK
6
CONTINUOUS
10
147.75
20
-68.615
11
147.75
21
-70.385
0
LINE
8
BLACK
6
CONTINUOUS
10
147.75
20
-70.385
11
147.732
21
-70.4889
0
LINE
8
BLACK
6
CONTINUOUS
10
147.732
20
-70.4889
11
147.661
21
-70.6111
0
LINE
8
BLACK
6
CONTINUOUS
10
147.661
20
-70.6111
11
147.553
21
-70.7018
0
LINE
8
BLACK
6
CONTINUOUS
10
147.553
20
-70.7018
11
147.421
21
-70.75
0
LINE
8
BLACK
6
CONTINUOUS
10
147.421
20
-70.75
11
147.279
21
-70.75
0
LINE
8
BLACK
6
CONTINUOUS
10
147.279
20
-70.75
11
147.147
21
-70.7018
0
LINE
8
BLACK
6
CONTINUOUS
10
147.147
20
-70.7018
11
147.039
21
-70.6111
0
LINE
8
BLACK
6
CONTINUOUS
10
147.039
20
-70.6111
11
146.968
21
-70.4889
0
LINE
8
BLACK
6
CONTINUOUS
10
146.968
20
-70.4889
11
146.95
21
-70.385
0
LINE
8
BLACK
6
CONTINUOUS
10
146.95
20
-70.385
11
146.95
21
-68.615
0
LINE
8
BLACK
6
CONTINUOUS
10
146.95
20
-68.615
11
146.968
21
-68.5111
0
LINE
8
BLACK
6
CONTINUOUS
10
146.968
20
-68.5111
11
147.039
21
-68.3889
0
LINE
8
BLACK
6
CONTINUOUS
10
147.039
20
-68.3889
11
147.147
21
-68.2982
0
LINE
8
BLACK
6
CONTINUOUS
10
147.147
20
-68.2982
11
147.279
21
-68.25
0
LINE
8
BLACK
6
CONTINUOUS
10
147.279
20
-68.25
11
147.421
21
-68.25
0
LINE
8
BLACK
6
CONTINUOUS
10
147.421
20
-68.25
11
147.553
21
-68.2982
0
LINE
8
BLACK
6
CONTINUOUS
10
148.853
20
-68.2982
11
148.961
21
-68.3889
0
LINE
8
BLACK
6
CONTINUOUS
10
148.961
20
-68.3889
11
149.032
21
-68.5111
0
LINE
8
BLACK
6
CONTINUOUS
10
149.032
20
-68.5111
11
149.05
21
-68.615
0
LINE
8
BLACK
6
CONTINUOUS
10
149.05
20
-68.615
11
149.05
21
-70.385
0
LINE
8
BLACK
6
CONTINUOUS
10
149.05
20
-70.385
11
149.032
21
-70.4889
0
LINE
8
BLACK
6
CONTINUOUS
10
149.032
20
-70.4889
11
148.961
21
-70.6111
0
LINE
8
BLACK
6
CONTINUOUS
10
148.961
20
-70.6111
11
148.853
21
-70.7018
0
LINE
8
BLACK
6
CONTINUOUS
10
148.853
20
-70.7018
11
148.721
21
-70.75
0
LINE
8
BLACK
6
CONTINUOUS
10
148.721
20
-70.75
11
148.579
21
-70.75
0
LINE
8
BLACK
6
CONTINUOUS
10
148.579
20
-70.75
11
148.447
21
-70.7018
0
LINE
8
BLACK
6
CONTINUOUS
10
148.447
20
-70.7018
11
148.339
21
-70.6111
0
LINE
8
BLACK
6
CONTINUOUS
10
148.339
20
-70.6111
11
148.268
21
-70.4889
0
LINE
8
BLACK
6
CONTINUOUS
10
148.268
20
-70.4889
11
148.25
21
-70.385
0
LINE
8
BLACK
6
CONTINUOUS
10
148.25
20
-70.385
11
148.25
21
-68.615
0
LINE
8
BLACK
6
CONTINUOUS
10
148.25
20
-68.615
11
148.268
21
-68.5111
0
LINE
8
BLACK
6
CONTINUOUS
10
148.268
20
-68.5111
11
148.339
21
-68.3889
0
LINE
8
BLACK
6
CONTINUOUS
10
148.339
20
-68.3889
11
148.447
21
-68.2982
0
LINE
8
BLACK
6
CONTINUOUS
10
148.447
20
-68.2982
11
148.579
21
-68.25
0
LINE
8
BLACK
6
CONTINUOUS
10
148.579
20
-68.25
11
148.721
21
-68.25
0
LINE
8
BLACK
6
CONTINUOUS
10
148.721
20
-68.25
11
148.853
21
-68.2982
0
LINE
8
BLACK
6
CONTINUOUS
10
150.153
20
-68.2982
11
150.261
21
-68.3889
0
LINE
8
BLACK
6
CONTINUOUS
10
150.261
20
-68.3889
11
150.332
21
-68.5111
0
LINE
8
BLACK
6
CONTINUOUS
10
150.332
20
-68.5111
11
150.35
21
-68.615
0
LINE
8
BLACK
6
CONTINUOUS
10
150.35
20
-68.615
11
150.35
21
-70.385
0
LINE
8
BLACK
6
CONTINUOUS
10
150.35
20
-70.385
11
150.332
21
-70.4889
0
LINE
8
BLACK
6
CONTINUOUS
10
150.332
20
-70.4889
11
150.261
21
-70.6111
0
LINE
8
BLACK
6
CONTINUOUS
10
150.261
20
-70.6111
11
150.153
21
-70.7018
0
LINE
8
BLACK
6
CONTINUOUS
10
150.153
20
-70.7018
11
150.021
21
-70.75
0
LINE
8
BLACK
6
CONTINUOUS
10
150.021
20
-70.75
11
149.879
21
-70.75
0
LINE
8
BLACK
6
CONTINUOUS
10
149.879
20
-70.75
11
149.747
21
-70.7018
0
LINE
8
BLACK
6
CONTINUOUS
10
149.747
20
-70.7018
11
149.639
21
-70.6111
0
LINE
8
BLACK
6
CONTINUOUS
10
149.639
20
-70.6111
11
149.568
21
-70.4889
0
LINE
8
BLACK
6
CONTINUOUS
10
149.568
20
-70.4889
11
149.55
21
-70.385
0
LINE
8
BLACK
6
CONTINUOUS
10
149.55
20
-70.385
11
149.55
21
-68.615
0
LINE
8
BLACK
6
CONTINUOUS
10
149.55
20
-68.615
11
149.568
21
-68.5111
0
LINE
8
BLACK
6
CONTINUOUS
10
149.568
20
-68.5111
11
149.639
21
-68.3889
0
LINE
8
BLACK
6
CONTINUOUS
10
149.639
20
-68.3889
11
149.747
21
-68.2982
0
LINE
8
BLACK
6
CONTINUOUS
10
149.747
20
-68.2982
11
149.879
21
-68.25
0
LINE
8
BLACK
6
CONTINUOUS
10
149.879
20
-68.25
11
150.021
21
-68.25
0
LINE
8
BLACK
6
CONTINUOUS
10
150.021
20
-68.25
11
150.153
21
-68.2982
0
LINE
8
BLACK
6
CONTINUOUS
10
109.8
20
-67.55
11
109
21
-67.55
0
LINE
8
BLACK
6
CONTINUOUS
10
109
20
-67.55
11
109
21
-66.65
0
LINE
8
BLACK
6
CONTINUOUS
10
109
20
-66.65
11
109.8
21
-66.65
0
LINE
8
BLACK
6
CONTINUOUS
10
109.8
20
-66.65
11
109.8
21
-67.55
0
LINE
8
BLACK
6
CONTINUOUS
10
148.35
20
-67.4
11
144.45
21
-67.4
0
LINE
8
BLACK
6
CONTINUOUS
10
144.45
20
-67.4
11
144.45
21
-66.2
0
LINE
8
BLACK
6
CONTINUOUS
10
144.45
20
-66.2
11
148.35
21
-66.2
0
LINE
8
BLACK
6
CONTINUOUS
10
148.35
20
-66.2
11
148.35
21
-67.4
0
LINE
8
BLACK
6
CONTINUOUS
10
139.6
20
-67.3
11
139.3
21
-67.3
0
LINE
8
BLACK
6
CONTINUOUS
10
139.3
20
-67.3
11
139.3
21
-66.9
0
LINE
8
BLACK
6
CONTINUOUS
10
139.3
20
-66.9
11
139.6
21
-66.9
0
LINE
8
BLACK
6
CONTINUOUS
10
139.6
20
-66.9
11
139.6
21
-67.3
0
LINE
8
BLACK
6
CONTINUOUS
10
138.7
20
-67.3
11
138.4
21
-67.3
0
LINE
8
BLACK
6
CONTINUOUS
10
138.4
20
-67.3
11
138.4
21
-66.9
0
LINE
8
BLACK
6
CONTINUOUS
10
138.4
20
-66.9
11
138.7
21
-66.9
0
LINE
8
BLACK
6
CONTINUOUS
10
138.7
20
-66.9
11
138.7
21
-67.3
0
LINE
8
BLACK
6
CONTINUOUS
10
142
20
-67.3
11
141.7
21
-67.3
0
LINE
8
BLACK
6
CONTINUOUS
10
141.7
20
-67.3
11
141.7
21
-66.9
0
LINE
8
BLACK
6
CONTINUOUS
10
141.7
20
-66.9
11
142
21
-66.9
0
LINE
8
BLACK
6
CONTINUOUS
10
142
20
-66.9
11
142
21
-67.3
0
LINE
8
BLACK
6
CONTINUOUS
10
141.1
20
-67.3
11
140.8
21
-67.3
0
LINE
8
BLACK
6
CONTINUOUS
10
140.8
20
-67.3
11
140.8
21
-66.9
0
LINE
8
BLACK
6
CONTINUOUS
10
140.8
20
-66.9
11
141.1
21
-66.9
0
LINE
8
BLACK
6
CONTINUOUS
10
141.1
20
-66.9
11
141.1
21
-67.3
0
LINE
8
BLACK
6
CONTINUOUS
10
143.623
20
-66.5139
11
143.667
21
-66.5395
0
LINE
8
BLACK
6
CONTINUOUS
10
143.667
20
-66.5395
11
143.7
21
-66.5787
0
LINE
8
BLACK
6
CONTINUOUS
10
143.7
20
-66.5787
11
143.72
21
-66.6525
0
LINE
8
BLACK
6
CONTINUOUS
10
143.72
20
-66.6525
11
143.72
21
-66.9475
0
LINE
8
BLACK
6
CONTINUOUS
10
143.72
20
-66.9475
11
143.711
21
-66.9979
0
LINE
8
BLACK
6
CONTINUOUS
10
143.711
20
-66.9979
11
143.685
21
-67.0423
0
LINE
8
BLACK
6
CONTINUOUS
10
143.685
20
-67.0423
11
143.646
21
-67.0752
0
LINE
8
BLACK
6
CONTINUOUS
10
143.646
20
-67.0752
11
143.572
21
-67.095
0
LINE
8
BLACK
6
CONTINUOUS
10
143.572
20
-67.095
11
143.227
21
-67.095
0
LINE
8
BLACK
6
CONTINUOUS
10
143.227
20
-67.095
11
143.177
21
-67.0861
0
LINE
8
BLACK
6
CONTINUOUS
10
143.177
20
-67.0861
11
143.133
21
-67.0605
0
LINE
8
BLACK
6
CONTINUOUS
10
143.133
20
-67.0605
11
143.1
21
-67.0212
0
LINE
8
BLACK
6
CONTINUOUS
10
143.1
20
-67.0212
11
143.08
21
-66.9475
0
LINE
8
BLACK
6
CONTINUOUS
10
143.08
20
-66.9475
11
143.08
21
-66.6525
0
LINE
8
BLACK
6
CONTINUOUS
10
143.08
20
-66.6525
11
143.089
21
-66.6021
0
LINE
8
BLACK
6
CONTINUOUS
10
143.089
20
-66.6021
11
143.115
21
-66.5577
0
LINE
8
BLACK
6
CONTINUOUS
10
143.115
20
-66.5577
11
143.154
21
-66.5248
0
LINE
8
BLACK
6
CONTINUOUS
10
143.154
20
-66.5248
11
143.227
21
-66.505
0
LINE
8
BLACK
6
CONTINUOUS
10
143.227
20
-66.505
11
143.572
21
-66.505
0
LINE
8
BLACK
6
CONTINUOUS
10
143.572
20
-66.505
11
143.623
21
-66.5139
0
LINE
8
BLACK
6
CONTINUOUS
10
150.723
20
-66.3989
11
150.767
21
-66.4245
0
LINE
8
BLACK
6
CONTINUOUS
10
150.767
20
-66.4245
11
150.8
21
-66.4637
0
LINE
8
BLACK
6
CONTINUOUS
10
150.8
20
-66.4637
11
150.82
21
-66.5375
0
LINE
8
BLACK
6
CONTINUOUS
10
150.82
20
-66.5375
11
150.82
21
-66.8325
0
LINE
8
BLACK
6
CONTINUOUS
10
150.82
20
-66.8325
11
150.811
21
-66.8829
0
LINE
8
BLACK
6
CONTINUOUS
10
150.811
20
-66.8829
11
150.785
21
-66.9273
0
LINE
8
BLACK
6
CONTINUOUS
10
150.785
20
-66.9273
11
150.746
21
-66.9602
0
LINE
8
BLACK
6
CONTINUOUS
10
150.746
20
-66.9602
11
150.672
21
-66.98
0
LINE
8
BLACK
6
CONTINUOUS
10
150.672
20
-66.98
11
150.327
21
-66.98
0
LINE
8
BLACK
6
CONTINUOUS
10
150.327
20
-66.98
11
150.277
21
-66.9711
0
LINE
8
BLACK
6
CONTINUOUS
10
150.277
20
-66.9711
11
150.233
21
-66.9455
0
LINE
8
BLACK
6
CONTINUOUS
10
150.233
20
-66.9455
11
150.2
21
-66.9062
0
LINE
8
BLACK
6
CONTINUOUS
10
150.2
20
-66.9062
11
150.18
21
-66.8325
0
LINE
8
BLACK
6
CONTINUOUS
10
150.18
20
-66.8325
11
150.18
21
-66.5375
0
LINE
8
BLACK
6
CONTINUOUS
10
150.18
20
-66.5375
11
150.189
21
-66.4871
0
LINE
8
BLACK
6
CONTINUOUS
10
150.189
20
-66.4871
11
150.215
21
-66.4427
0
LINE
8
BLACK
6
CONTINUOUS
10
150.215
20
-66.4427
11
150.254
21
-66.4098
0
LINE
8
BLACK
6
CONTINUOUS
10
150.254
20
-66.4098
11
150.327
21
-66.39
0
LINE
8
BLACK
6
CONTINUOUS
10
150.327
20
-66.39
11
150.672
21
-66.39
0
LINE
8
BLACK
6
CONTINUOUS
10
150.672
20
-66.39
11
150.723
21
-66.3989
0
LINE
8
BLACK
6
CONTINUOUS
10
152.723
20
-66.3989
11
152.767
21
-66.4245
0
LINE
8
BLACK
6
CONTINUOUS
10
152.767
20
-66.4245
11
152.8
21
-66.4637
0
LINE
8
BLACK
6
CONTINUOUS
10
152.8
20
-66.4637
11
152.82
21
-66.5375
0
LINE
8
BLACK
6
CONTINUOUS
10
152.82
20
-66.5375
11
152.82
21
-66.8325
0
LINE
8
BLACK
6
CONTINUOUS
10
152.82
20
-66.8325
11
152.811
21
-66.8829
0
LINE
8
BLACK
6
CONTINUOUS
10
152.811
20
-66.8829
11
152.785
21
-66.9273
0
LINE
8
BLACK
6
CONTINUOUS
10
152.785
20
-66.9273
11
152.746
21
-66.9602
0
LINE
8
BLACK
6
CONTINUOUS
10
152.746
20
-66.9602
11
152.672
21
-66.98
0
LINE
8
BLACK
6
CONTINUOUS
10
152.672
20
-66.98
11
152.327
21
-66.98
0
LINE
8
BLACK
6
CONTINUOUS
10
152.327
20
-66.98
11
152.277
21
-66.9711
0
LINE
8
BLACK
6
CONTINUOUS
10
152.277
20
-66.9711
11
152.233
21
-66.9455
0
LINE
8
BLACK
6
CONTINUOUS
10
152.233
20
-66.9455
11
152.2
21
-66.9062
0
LINE
8
BLACK
6
CONTINUOUS
10
152.2
20
-66.9062
11
152.18
21
-66.8325
0
LINE
8
BLACK
6
CONTINUOUS
10
152.18
20
-66.8325
11
152.18
21
-66.5375
0
LINE
8
BLACK
6
CONTINUOUS
10
152.18
20
-66.5375
11
152.189
21
-66.4871
0
LINE
8
BLACK
6
CONTINUOUS
10
152.189
20
-66.4871
11
152.215
21
-66.4427
0
LINE
8
BLACK
6
CONTINUOUS
10
152.215
20
-66.4427
11
152.254
21
-66.4098
0
LINE
8
BLACK
6
CONTINUOUS
10
152.254
20
-66.4098
11
152.327
21
-66.39
0
LINE
8
BLACK
6
CONTINUOUS
10
152.327
20
-66.39
11
152.672
21
-66.39
0
LINE
8
BLACK
6
CONTINUOUS
10
152.672
20
-66.39
11
152.723
21
-66.3989
0
LINE
8
BLACK
6
CONTINUOUS
10
151.723
20
-66.3989
11
151.767
21
-66.4245
0
LINE
8
BLACK
6
CONTINUOUS
10
151.767
20
-66.4245
11
151.8
21
-66.4637
0
LINE
8
BLACK
6
CONTINUOUS
10
151.8
20
-66.4637
11
151.82
21
-66.5375
0
LINE
8
BLACK
6
CONTINUOUS
10
151.82
20
-66.5375
11
151.82
21
-66.8325
0
LINE
8
BLACK
6
CONTINUOUS
10
151.82
20
-66.8325
11
151.811
21
-66.8829
0
LINE
8
BLACK
6
CONTINUOUS
10
151.811
20
-66.8829
11
151.785
21
-66.9273
0
LINE
8
BLACK
6
CONTINUOUS
10
151.785
20
-66.9273
11
151.746
21
-66.9602
0
LINE
8
BLACK
6
CONTINUOUS
10
151.746
20
-66.9602
11
151.672
21
-66.98
0
LINE
8
BLACK
6
CONTINUOUS
10
151.672
20
-66.98
11
151.327
21
-66.98
0
LINE
8
BLACK
6
CONTINUOUS
10
151.327
20
-66.98
11
151.277
21
-66.9711
0
LINE
8
BLACK
6
CONTINUOUS
10
151.277
20
-66.9711
11
151.233
21
-66.9455
0
LINE
8
BLACK
6
CONTINUOUS
10
151.233
20
-66.9455
11
151.2
21
-66.9062
0
LINE
8
BLACK
6
CONTINUOUS
10
151.2
20
-66.9062
11
151.18
21
-66.8325
0
LINE
8
BLACK
6
CONTINUOUS
10
151.18
20
-66.8325
11
151.18
21
-66.5375
0
LINE
8
BLACK
6
CONTINUOUS
10
151.18
20
-66.5375
11
151.189
21
-66.4871
0
LINE
8
BLACK
6
CONTINUOUS
10
151.189
20
-66.4871
11
151.215
21
-66.4427
0
LINE
8
BLACK
6
CONTINUOUS
10
151.215
20
-66.4427
11
151.254
21
-66.4098
0
LINE
8
BLACK
6
CONTINUOUS
10
151.254
20
-66.4098
11
151.327
21
-66.39
0
LINE
8
BLACK
6
CONTINUOUS
10
151.327
20
-66.39
11
151.672
21
-66.39
0
LINE
8
BLACK
6
CONTINUOUS
10
151.672
20
-66.39
11
151.723
21
-66.3989
0
LINE
8
BLACK
6
CONTINUOUS
10
149.7
20
-66.975
11
149.1
21
-66.975
0
LINE
8
BLACK
6
CONTINUOUS
10
149.1
20
-66.975
11
149.1
21
-66.425
0
LINE
8
BLACK
6
CONTINUOUS
10
149.1
20
-66.425
11
149.7
21
-66.425
0
LINE
8
BLACK
6
CONTINUOUS
10
149.7
20
-66.425
11
149.7
21
-66.975
0
LINE
8
BLACK
6
CONTINUOUS
10
132.036
20
-63.0651
11
132.111
21
-63.1085
0
LINE
8
BLACK
6
CONTINUOUS
10
132.111
20
-63.1085
11
132.167
21
-63.175
0
LINE
8
BLACK
6
CONTINUOUS
10
132.167
20
-63.175
11
132.2
21
-63.3
0
LINE
8
BLACK
6
CONTINUOUS
10
132.2
20
-63.3
11
132.2
21
-66.3
0
LINE
8
BLACK
6
CONTINUOUS
10
132.2
20
-66.3
11
132.185
21
-66.3855
0
LINE
8
BLACK
6
CONTINUOUS
10
132.185
20
-66.3855
11
132.142
21
-66.4607
0
LINE
8
BLACK
6
CONTINUOUS
10
132.142
20
-66.4607
11
132.075
21
-66.5165
0
LINE
8
BLACK
6
CONTINUOUS
10
132.075
20
-66.5165
11
131.95
21
-66.55
0
LINE
8
BLACK
6
CONTINUOUS
10
131.95
20
-66.55
11
130.85
21
-66.55
0
LINE
8
BLACK
6
CONTINUOUS
10
130.85
20
-66.55
11
130.764
21
-66.5349
0
LINE
8
BLACK
6
CONTINUOUS
10
130.764
20
-66.5349
11
130.689
21
-66.4915
0
LINE
8
BLACK
6
CONTINUOUS
10
130.689
20
-66.4915
11
130.633
21
-66.425
0
LINE
8
BLACK
6
CONTINUOUS
10
130.633
20
-66.425
11
130.6
21
-66.3
0
LINE
8
BLACK
6
CONTINUOUS
10
130.6
20
-66.3
11
130.6
21
-63.3
0
LINE
8
BLACK
6
CONTINUOUS
10
130.6
20
-63.3
11
130.615
21
-63.2145
0
LINE
8
BLACK
6
CONTINUOUS
10
130.615
20
-63.2145
11
130.658
21
-63.1393
0
LINE
8
BLACK
6
CONTINUOUS
10
130.658
20
-63.1393
11
130.725
21
-63.0835
0
LINE
8
BLACK
6
CONTINUOUS
10
130.725
20
-63.0835
11
130.85
21
-63.05
0
LINE
8
BLACK
6
CONTINUOUS
10
130.85
20
-63.05
11
131.95
21
-63.05
0
LINE
8
BLACK
6
CONTINUOUS
10
131.95
20
-63.05
11
132.036
21
-63.0651
0
LINE
8
BLACK
6
CONTINUOUS
10
107.25
20
-66.5
11
104.75
21
-66.5
0
LINE
8
BLACK
6
CONTINUOUS
10
104.75
20
-66.5
11
104.75
21
-64.7
0
LINE
8
BLACK
6
CONTINUOUS
10
104.75
20
-64.7
11
107.25
21
-64.7
0
LINE
8
BLACK
6
CONTINUOUS
10
107.25
20
-64.7
11
107.25
21
-66.5
0
LINE
8
BLACK
6
CONTINUOUS
10
103.25
20
-66.5
11
100.75
21
-66.5
0
LINE
8
BLACK
6
CONTINUOUS
10
100.75
20
-66.5
11
100.75
21
-64.7
0
LINE
8
BLACK
6
CONTINUOUS
10
100.75
20
-64.7
11
103.25
21
-64.7
0
LINE
8
BLACK
6
CONTINUOUS
10
103.25
20
-64.7
11
103.25
21
-66.5
0
LINE
8
BLACK
6
CONTINUOUS
10
149.7
20
-66.125
11
149.1
21
-66.125
0
LINE
8
BLACK
6
CONTINUOUS
10
149.1
20
-66.125
11
149.1
21
-65.575
0
LINE
8
BLACK
6
CONTINUOUS
10
149.1
20
-65.575
11
149.7
21
-65.575
0
LINE
8
BLACK
6
CONTINUOUS
10
149.7
20
-65.575
11
149.7
21
-66.125
0
LINE
8
BLACK
6
CONTINUOUS
10
143.623
20
-65.5439
11
143.667
21
-65.5695
0
LINE
8
BLACK
6
CONTINUOUS
10
143.667
20
-65.5695
11
143.7
21
-65.6088
0
LINE
8
BLACK
6
CONTINUOUS
10
143.7
20
-65.6088
11
143.72
21
-65.6825
0
LINE
8
BLACK
6
CONTINUOUS
10
143.72
20
-65.6825
11
143.72
21
-65.9775
0
LINE
8
BLACK
6
CONTINUOUS
10
143.72
20
-65.9775
11
143.711
21
-66.0279
0
LINE
8
BLACK
6
CONTINUOUS
10
143.711
20
-66.0279
11
143.685
21
-66.0723
0
LINE
8
BLACK
6
CONTINUOUS
10
143.685
20
-66.0723
11
143.646
21
-66.1052
0
LINE
8
BLACK
6
CONTINUOUS
10
143.646
20
-66.1052
11
143.572
21
-66.125
0
LINE
8
BLACK
6
CONTINUOUS
10
143.572
20
-66.125
11
143.227
21
-66.125
0
LINE
8
BLACK
6
CONTINUOUS
10
143.227
20
-66.125
11
143.177
21
-66.1161
0
LINE
8
BLACK
6
CONTINUOUS
10
143.177
20
-66.1161
11
143.133
21
-66.0905
0
LINE
8
BLACK
6
CONTINUOUS
10
143.133
20
-66.0905
11
143.1
21
-66.0512
0
LINE
8
BLACK
6
CONTINUOUS
10
143.1
20
-66.0512
11
143.08
21
-65.9775
0
LINE
8
BLACK
6
CONTINUOUS
10
143.08
20
-65.9775
11
143.08
21
-65.6825
0
LINE
8
BLACK
6
CONTINUOUS
10
143.08
20
-65.6825
11
143.089
21
-65.6321
0
LINE
8
BLACK
6
CONTINUOUS
10
143.089
20
-65.6321
11
143.115
21
-65.5877
0
LINE
8
BLACK
6
CONTINUOUS
10
143.115
20
-65.5877
11
143.154
21
-65.5548
0
LINE
8
BLACK
6
CONTINUOUS
10
143.154
20
-65.5548
11
143.227
21
-65.535
0
LINE
8
BLACK
6
CONTINUOUS
10
143.227
20
-65.535
11
143.572
21
-65.535
0
LINE
8
BLACK
6
CONTINUOUS
10
143.572
20
-65.535
11
143.623
21
-65.5439
0
LINE
8
BLACK
6
CONTINUOUS
10
151.723
20
-65.4289
11
151.767
21
-65.4545
0
LINE
8
BLACK
6
CONTINUOUS
10
151.767
20
-65.4545
11
151.8
21
-65.4937
0
LINE
8
BLACK
6
CONTINUOUS
10
151.8
20
-65.4937
11
151.82
21
-65.5675
0
LINE
8
BLACK
6
CONTINUOUS
10
151.82
20
-65.5675
11
151.82
21
-65.8625
0
LINE
8
BLACK
6
CONTINUOUS
10
151.82
20
-65.8625
11
151.811
21
-65.9129
0
LINE
8
BLACK
6
CONTINUOUS
10
151.811
20
-65.9129
11
151.785
21
-65.9573
0
LINE
8
BLACK
6
CONTINUOUS
10
151.785
20
-65.9573
11
151.746
21
-65.9902
0
LINE
8
BLACK
6
CONTINUOUS
10
151.746
20
-65.9902
11
151.672
21
-66.01
0
LINE
8
BLACK
6
CONTINUOUS
10
151.672
20
-66.01
11
151.327
21
-66.01
0
LINE
8
BLACK
6
CONTINUOUS
10
151.327
20
-66.01
11
151.277
21
-66.0011
0
LINE
8
BLACK
6
CONTINUOUS
10
151.277
20
-66.0011
11
151.233
21
-65.9755
0
LINE
8
BLACK
6
CONTINUOUS
10
151.233
20
-65.9755
11
151.2
21
-65.9363
0
LINE
8
BLACK
6
CONTINUOUS
10
151.2
20
-65.9363
11
151.18
21
-65.8625
0
LINE
8
BLACK
6
CONTINUOUS
10
151.18
20
-65.8625
11
151.18
21
-65.5675
0
LINE
8
BLACK
6
CONTINUOUS
10
151.18
20
-65.5675
11
151.189
21
-65.5171
0
LINE
8
BLACK
6
CONTINUOUS
10
151.189
20
-65.5171
11
151.215
21
-65.4727
0
LINE
8
BLACK
6
CONTINUOUS
10
151.215
20
-65.4727
11
151.254
21
-65.4398
0
LINE
8
BLACK
6
CONTINUOUS
10
151.254
20
-65.4398
11
151.327
21
-65.42
0
LINE
8
BLACK
6
CONTINUOUS
10
151.327
20
-65.42
11
151.672
21
-65.42
0
LINE
8
BLACK
6
CONTINUOUS
10
151.672
20
-65.42
11
151.723
21
-65.4289
0
LINE
8
BLACK
6
CONTINUOUS
10
152.723
20
-65.4289
11
152.767
21
-65.4545
0
LINE
8
BLACK
6
CONTINUOUS
10
152.767
20
-65.4545
11
152.8
21
-65.4937
0
LINE
8
BLACK
6
CONTINUOUS
10
152.8
20
-65.4937
11
152.82
21
-65.5675
0
LINE
8
BLACK
6
CONTINUOUS
10
152.82
20
-65.5675
11
152.82
21
-65.8625
0
LINE
8
BLACK
6
CONTINUOUS
10
152.82
20
-65.8625
11
152.811
21
-65.9129
0
LINE
8
BLACK
6
CONTINUOUS
10
152.811
20
-65.9129
11
152.785
21
-65.9573
0
LINE
8
BLACK
6
CONTINUOUS
10
152.785
20
-65.9573
11
152.746
21
-65.9902
0
LINE
8
BLACK
6
CONTINUOUS
10
152.746
20
-65.9902
11
152.672
21
-66.01
0
LINE
8
BLACK
6
CONTINUOUS
10
152.672
20
-66.01
11
152.327
21
-66.01
0
LINE
8
BLACK
6
CONTINUOUS
10
152.327
20
-66.01
11
152.277
21
-66.0011
0
LINE
8
BLACK
6
CONTINUOUS
10
152.277
20
-66.0011
11
152.233
21
-65.9755
0
LINE
8
BLACK
6
CONTINUOUS
10
152.233
20
-65.9755
11
152.2
21
-65.9363
0
LINE
8
BLACK
6
CONTINUOUS
10
152.2
20
-65.9363
11
152.18
21
-65.8625
0
LINE
8
BLACK
6
CONTINUOUS
10
152.18
20
-65.8625
11
152.18
21
-65.5675
0
LINE
8
BLACK
6
CONTINUOUS
10
152.18
20
-65.5675
11
152.189
21
-65.5171
0
LINE
8
BLACK
6
CONTINUOUS
10
152.189
20
-65.5171
11
152.215
21
-65.4727
0
LINE
8
BLACK
6
CONTINUOUS
10
152.215
20
-65.4727
11
152.254
21
-65.4398
0
LINE
8
BLACK
6
CONTINUOUS
10
152.254
20
-65.4398
11
152.327
21
-65.42
0
LINE
8
BLACK
6
CONTINUOUS
10
152.327
20
-65.42
11
152.672
21
-65.42
0
LINE
8
BLACK
6
CONTINUOUS
10
152.672
20
-65.42
11
152.723
21
-65.4289
0
LINE
8
BLACK
6
CONTINUOUS
10
150.723
20
-65.4289
11
150.767
21
-65.4545
0
LINE
8
BLACK
6
CONTINUOUS
10
150.767
20
-65.4545
11
150.8
21
-65.4937
0
LINE
8
BLACK
6
CONTINUOUS
10
150.8
20
-65.4937
11
150.82
21
-65.5675
0
LINE
8
BLACK
6
CONTINUOUS
10
150.82
20
-65.5675
11
150.82
21
-65.8625
0
LINE
8
BLACK
6
CONTINUOUS
10
150.82
20
-65.8625
11
150.811
21
-65.9129
0
LINE
8
BLACK
6
CONTINUOUS
10
150.811
20
-65.9129
11
150.785
21
-65.9573
0
LINE
8
BLACK
6
CONTINUOUS
10
150.785
20
-65.9573
11
150.746
21
-65.9902
0
LINE
8
BLACK
6
CONTINUOUS
10
150.746
20
-65.9902
11
150.672
21
-66.01
0
LINE
8
BLACK
6
CONTINUOUS
10
150.672
20
-66.01
11
150.327
21
-66.01
0
LINE
8
BLACK
6
CONTINUOUS
10
150.327
20
-66.01
11
150.277
21
-66.0011
0
LINE
8
BLACK
6
CONTINUOUS
10
150.277
20
-66.0011
11
150.233
21
-65.9755
0
LINE
8
BLACK
6
CONTINUOUS
10
150.233
20
-65.9755
11
150.2
21
-65.9363
0
LINE
8
BLACK
6
CONTINUOUS
10
150.2
20
-65.9363
11
150.18
21
-65.8625
0
LINE
8
BLACK
6
CONTINUOUS
10
150.18
20
-65.8625
11
150.18
21
-65.5675
0
LINE
8
BLACK
6
CONTINUOUS
10
150.18
20
-65.5675
11
150.189
21
-65.5171
0
LINE
8
BLACK
6
CONTINUOUS
10
150.189
20
-65.5171
11
150.215
21
-65.4727
0
LINE
8
BLACK
6
CONTINUOUS
10
150.215
20
-65.4727
11
150.254
21
-65.4398
0
LINE
8
BLACK
6
CONTINUOUS
10
150.254
20
-65.4398
11
150.327
21
-65.42
0
LINE
8
BLACK
6
CONTINUOUS
10
150.327
20
-65.42
11
150.672
21
-65.42
0
LINE
8
BLACK
6
CONTINUOUS
10
150.672
20
-65.42
11
150.723
21
-65.4289
0
LINE
8
BLACK
6
CONTINUOUS
10
108.85
20
-65.55
11
108.05
21
-65.55
0
LINE
8
BLACK
6
CONTINUOUS
10
108.05
20
-65.55
11
108.05
21
-64.65
0
LINE
8
BLACK
6
CONTINUOUS
10
108.05
20
-64.65
11
108.85
21
-64.65
0
LINE
8
BLACK
6
CONTINUOUS
10
108.85
20
-64.65
11
108.85
21
-65.55
0
LINE
8
BLACK
6
CONTINUOUS
10
110.75
20
-65.55
11
109.95
21
-65.55
0
LINE
8
BLACK
6
CONTINUOUS
10
109.95
20
-65.55
11
109.95
21
-64.65
0
LINE
8
BLACK
6
CONTINUOUS
10
109.95
20
-64.65
11
110.75
21
-64.65
0
LINE
8
BLACK
6
CONTINUOUS
10
110.75
20
-64.65
11
110.75
21
-65.55
0
LINE
8
BLACK
6
CONTINUOUS
10
149.831
20
-64.0632
11
149.897
21
-64.1012
0
LINE
8
BLACK
6
CONTINUOUS
10
149.897
20
-64.1012
11
149.946
21
-64.1594
0
LINE
8
BLACK
6
CONTINUOUS
10
149.946
20
-64.1594
11
149.975
21
-64.2687
0
LINE
8
BLACK
6
CONTINUOUS
10
149.975
20
-64.2687
11
149.975
21
-64.7062
0
LINE
8
BLACK
6
CONTINUOUS
10
149.975
20
-64.7062
11
149.962
21
-64.7811
0
LINE
8
BLACK
6
CONTINUOUS
10
149.962
20
-64.7811
11
149.924
21
-64.8469
0
LINE
8
BLACK
6
CONTINUOUS
10
149.924
20
-64.8469
11
149.866
21
-64.8957
0
LINE
8
BLACK
6
CONTINUOUS
10
149.866
20
-64.8957
11
149.756
21
-64.925
0
LINE
8
BLACK
6
CONTINUOUS
10
149.756
20
-64.925
11
149.244
21
-64.925
0
LINE
8
BLACK
6
CONTINUOUS
10
149.244
20
-64.925
11
149.169
21
-64.9118
0
LINE
8
BLACK
6
CONTINUOUS
10
149.169
20
-64.9118
11
149.103
21
-64.8738
0
LINE
8
BLACK
6
CONTINUOUS
10
149.103
20
-64.8738
11
149.054
21
-64.8156
0
LINE
8
BLACK
6
CONTINUOUS
10
149.054
20
-64.8156
11
149.025
21
-64.7062
0
LINE
8
BLACK
6
CONTINUOUS
10
149.025
20
-64.7062
11
149.025
21
-64.2687
0
LINE
8
BLACK
6
CONTINUOUS
10
149.025
20
-64.2687
11
149.038
21
-64.1939
0
LINE
8
BLACK
6
CONTINUOUS
10
149.038
20
-64.1939
11
149.076
21
-64.1281
0
LINE
8
BLACK
6
CONTINUOUS
10
149.076
20
-64.1281
11
149.134
21
-64.0793
0
LINE
8
BLACK
6
CONTINUOUS
10
149.134
20
-64.0793
11
149.244
21
-64.05
0
LINE
8
BLACK
6
CONTINUOUS
10
149.244
20
-64.05
11
149.756
21
-64.05
0
LINE
8
BLACK
6
CONTINUOUS
10
149.756
20
-64.05
11
149.831
21
-64.0632
0
LINE
8
BLACK
6
CONTINUOUS
10
148.35
20
-64.6
11
144.45
21
-64.6
0
LINE
8
BLACK
6
CONTINUOUS
10
144.45
20
-64.6
11
144.45
21
-63.4
0
LINE
8
BLACK
6
CONTINUOUS
10
144.45
20
-63.4
11
148.35
21
-63.4
0
LINE
8
BLACK
6
CONTINUOUS
10
148.35
20
-63.4
11
148.35
21
-64.6
0
LINE
8
BLACK
6
CONTINUOUS
10
109.513
20
-63.4889
11
109.557
21
-63.5145
0
LINE
8
BLACK
6
CONTINUOUS
10
109.557
20
-63.5145
11
109.59
21
-63.5537
0
LINE
8
BLACK
6
CONTINUOUS
10
109.59
20
-63.5537
11
109.61
21
-63.6275
0
LINE
8
BLACK
6
CONTINUOUS
10
109.61
20
-63.6275
11
109.61
21
-63.9725
0
LINE
8
BLACK
6
CONTINUOUS
10
109.61
20
-63.9725
11
109.601
21
-64.0229
0
LINE
8
BLACK
6
CONTINUOUS
10
109.601
20
-64.0229
11
109.575
21
-64.0673
0
LINE
8
BLACK
6
CONTINUOUS
10
109.575
20
-64.0673
11
109.536
21
-64.1002
0
LINE
8
BLACK
6
CONTINUOUS
10
109.536
20
-64.1002
11
109.462
21
-64.12
0
LINE
8
BLACK
6
CONTINUOUS
10
109.462
20
-64.12
11
109.167
21
-64.12
0
LINE
8
BLACK
6
CONTINUOUS
10
109.167
20
-64.12
11
109.117
21
-64.1111
0
LINE
8
BLACK
6
CONTINUOUS
10
109.117
20
-64.1111
11
109.073
21
-64.0855
0
LINE
8
BLACK
6
CONTINUOUS
10
109.073
20
-64.0855
11
109.04
21
-64.0463
0
LINE
8
BLACK
6
CONTINUOUS
10
109.04
20
-64.0463
11
109.02
21
-63.9725
0
LINE
8
BLACK
6
CONTINUOUS
10
109.02
20
-63.9725
11
109.02
21
-63.6275
0
LINE
8
BLACK
6
CONTINUOUS
10
109.02
20
-63.6275
11
109.029
21
-63.5771
0
LINE
8
BLACK
6
CONTINUOUS
10
109.029
20
-63.5771
11
109.055
21
-63.5327
0
LINE
8
BLACK
6
CONTINUOUS
10
109.055
20
-63.5327
11
109.094
21
-63.4998
0
LINE
8
BLACK
6
CONTINUOUS
10
109.094
20
-63.4998
11
109.167
21
-63.48
0
LINE
8
BLACK
6
CONTINUOUS
10
109.167
20
-63.48
11
109.462
21
-63.48
0
LINE
8
BLACK
6
CONTINUOUS
10
109.462
20
-63.48
11
109.513
21
-63.4889
0
LINE
8
BLACK
6
CONTINUOUS
10
110.483
20
-63.4889
11
110.527
21
-63.5145
0
LINE
8
BLACK
6
CONTINUOUS
10
110.527
20
-63.5145
11
110.56
21
-63.5537
0
LINE
8
BLACK
6
CONTINUOUS
10
110.56
20
-63.5537
11
110.58
21
-63.6275
0
LINE
8
BLACK
6
CONTINUOUS
10
110.58
20
-63.6275
11
110.58
21
-63.9725
0
LINE
8
BLACK
6
CONTINUOUS
10
110.58
20
-63.9725
11
110.571
21
-64.0229
0
LINE
8
BLACK
6
CONTINUOUS
10
110.571
20
-64.0229
11
110.545
21
-64.0673
0
LINE
8
BLACK
6
CONTINUOUS
10
110.545
20
-64.0673
11
110.506
21
-64.1002
0
LINE
8
BLACK
6
CONTINUOUS
10
110.506
20
-64.1002
11
110.432
21
-64.12
0
LINE
8
BLACK
6
CONTINUOUS
10
110.432
20
-64.12
11
110.137
21
-64.12
0
LINE
8
BLACK
6
CONTINUOUS
10
110.137
20
-64.12
11
110.087
21
-64.1111
0
LINE
8
BLACK
6
CONTINUOUS
10
110.087
20
-64.1111
11
110.043
21
-64.0855
0
LINE
8
BLACK
6
CONTINUOUS
10
110.043
20
-64.0855
11
110.01
21
-64.0463
0
LINE
8
BLACK
6
CONTINUOUS
10
110.01
20
-64.0463
11
109.99
21
-63.9725
0
LINE
8
BLACK
6
CONTINUOUS
10
109.99
20
-63.9725
11
109.99
21
-63.6275
0
LINE
8
BLACK
6
CONTINUOUS
10
109.99
20
-63.6275
11
109.999
21
-63.5771
0
LINE
8
BLACK
6
CONTINUOUS
10
109.999
20
-63.5771
11
110.025
21
-63.5327
0
LINE
8
BLACK
6
CONTINUOUS
10
110.025
20
-63.5327
11
110.064
21
-63.4998
0
LINE
8
BLACK
6
CONTINUOUS
10
110.064
20
-63.4998
11
110.137
21
-63.48
0
LINE
8
BLACK
6
CONTINUOUS
10
110.137
20
-63.48
11
110.432
21
-63.48
0
LINE
8
BLACK
6
CONTINUOUS
10
110.432
20
-63.48
11
110.483
21
-63.4889
0
LINE
8
BLACK
6
CONTINUOUS
10
156.41
20
-63.65
11
152.01
21
-63.65
0
LINE
8
BLACK
6
CONTINUOUS
10
152.01
20
-63.65
11
152.01
21
-61.15
0
LINE
8
BLACK
6
CONTINUOUS
10
152.01
20
-61.15
11
156.41
21
-61.15
0
LINE
8
BLACK
6
CONTINUOUS
10
156.41
20
-61.15
11
156.41
21
-63.65
0
LINE
8
BLACK
6
CONTINUOUS
10
163.81
20
-63.65
11
159.41
21
-63.65
0
LINE
8
BLACK
6
CONTINUOUS
10
159.41
20
-63.65
11
159.41
21
-61.15
0
LINE
8
BLACK
6
CONTINUOUS
10
159.41
20
-61.15
11
163.81
21
-61.15
0
LINE
8
BLACK
6
CONTINUOUS
10
163.81
20
-61.15
11
163.81
21
-63.65
0
LINE
8
BLACK
6
CONTINUOUS
10
149.831
20
-62.4882
11
149.897
21
-62.5262
0
LINE
8
BLACK
6
CONTINUOUS
10
149.897
20
-62.5262
11
149.946
21
-62.5844
0
LINE
8
BLACK
6
CONTINUOUS
10
149.946
20
-62.5844
11
149.975
21
-62.6937
0
LINE
8
BLACK
6
CONTINUOUS
10
149.975
20
-62.6937
11
149.975
21
-63.1312
0
LINE
8
BLACK
6
CONTINUOUS
10
149.975
20
-63.1312
11
149.962
21
-63.2061
0
LINE
8
BLACK
6
CONTINUOUS
10
149.962
20
-63.2061
11
149.924
21
-63.2719
0
LINE
8
BLACK
6
CONTINUOUS
10
149.924
20
-63.2719
11
149.866
21
-63.3207
0
LINE
8
BLACK
6
CONTINUOUS
10
149.866
20
-63.3207
11
149.756
21
-63.35
0
LINE
8
BLACK
6
CONTINUOUS
10
149.756
20
-63.35
11
149.244
21
-63.35
0
LINE
8
BLACK
6
CONTINUOUS
10
149.244
20
-63.35
11
149.169
21
-63.3368
0
LINE
8
BLACK
6
CONTINUOUS
10
149.169
20
-63.3368
11
149.103
21
-63.2988
0
LINE
8
BLACK
6
CONTINUOUS
10
149.103
20
-63.2988
11
149.054
21
-63.2406
0
LINE
8
BLACK
6
CONTINUOUS
10
149.054
20
-63.2406
11
149.025
21
-63.1312
0
LINE
8
BLACK
6
CONTINUOUS
10
149.025
20
-63.1312
11
149.025
21
-62.6937
0
LINE
8
BLACK
6
CONTINUOUS
10
149.025
20
-62.6937
11
149.038
21
-62.6189
0
LINE
8
BLACK
6
CONTINUOUS
10
149.038
20
-62.6189
11
149.076
21
-62.5531
0
LINE
8
BLACK
6
CONTINUOUS
10
149.076
20
-62.5531
11
149.134
21
-62.5043
0
LINE
8
BLACK
6
CONTINUOUS
10
149.134
20
-62.5043
11
149.244
21
-62.475
0
LINE
8
BLACK
6
CONTINUOUS
10
149.244
20
-62.475
11
149.756
21
-62.475
0
LINE
8
BLACK
6
CONTINUOUS
10
149.756
20
-62.475
11
149.831
21
-62.4882
0
LINE
8
BLACK
6
CONTINUOUS
10
147.13
20
-62.475
11
146.07
21
-62.475
0
LINE
8
BLACK
6
CONTINUOUS
10
146.07
20
-62.475
11
146.07
21
-61.825
0
LINE
8
BLACK
6
CONTINUOUS
10
146.07
20
-61.825
11
147.13
21
-61.825
0
LINE
8
BLACK
6
CONTINUOUS
10
147.13
20
-61.825
11
147.13
21
-62.475
0
LINE
8
BLACK
6
CONTINUOUS
10
144.93
20
-62.475
11
143.87
21
-62.475
0
LINE
8
BLACK
6
CONTINUOUS
10
143.87
20
-62.475
11
143.87
21
-61.825
0
LINE
8
BLACK
6
CONTINUOUS
10
143.87
20
-61.825
11
144.93
21
-61.825
0
LINE
8
BLACK
6
CONTINUOUS
10
144.93
20
-61.825
11
144.93
21
-62.475
0
LINE
8
BLACK
6
CONTINUOUS
10
141.731
20
-60.7632
11
141.797
21
-60.8012
0
LINE
8
BLACK
6
CONTINUOUS
10
141.797
20
-60.8012
11
141.846
21
-60.8594
0
LINE
8
BLACK
6
CONTINUOUS
10
141.846
20
-60.8594
11
141.875
21
-60.9688
0
LINE
8
BLACK
6
CONTINUOUS
10
141.875
20
-60.9688
11
141.875
21
-61.4062
0
LINE
8
BLACK
6
CONTINUOUS
10
141.875
20
-61.4062
11
141.862
21
-61.4811
0
LINE
8
BLACK
6
CONTINUOUS
10
141.862
20
-61.4811
11
141.824
21
-61.5469
0
LINE
8
BLACK
6
CONTINUOUS
10
141.824
20
-61.5469
11
141.766
21
-61.5957
0
LINE
8
BLACK
6
CONTINUOUS
10
141.766
20
-61.5957
11
141.656
21
-61.625
0
LINE
8
BLACK
6
CONTINUOUS
10
141.656
20
-61.625
11
141.144
21
-61.625
0
LINE
8
BLACK
6
CONTINUOUS
10
141.144
20
-61.625
11
141.069
21
-61.6118
0
LINE
8
BLACK
6
CONTINUOUS
10
141.069
20
-61.6118
11
141.003
21
-61.5738
0
LINE
8
BLACK
6
CONTINUOUS
10
141.003
20
-61.5738
11
140.954
21
-61.5156
0
LINE
8
BLACK
6
CONTINUOUS
10
140.954
20
-61.5156
11
140.925
21
-61.4062
0
LINE
8
BLACK
6
CONTINUOUS
10
140.925
20
-61.4062
11
140.925
21
-60.9688
0
LINE
8
BLACK
6
CONTINUOUS
10
140.925
20
-60.9688
11
140.938
21
-60.8939
0
LINE
8
BLACK
6
CONTINUOUS
10
140.938
20
-60.8939
11
140.976
21
-60.8281
0
LINE
8
BLACK
6
CONTINUOUS
10
140.976
20
-60.8281
11
141.034
21
-60.7793
0
LINE
8
BLACK
6
CONTINUOUS
10
141.034
20
-60.7793
11
141.144
21
-60.75
0
LINE
8
BLACK
6
CONTINUOUS
10
141.144
20
-60.75
11
141.656
21
-60.75
0
LINE
8
BLACK
6
CONTINUOUS
10
141.656
20
-60.75
11
141.731
21
-60.7632
0
LINE
8
BLACK
6
CONTINUOUS
10
144.93
20
-61.525
11
143.87
21
-61.525
0
LINE
8
BLACK
6
CONTINUOUS
10
143.87
20
-61.525
11
143.87
21
-60.875
0
LINE
8
BLACK
6
CONTINUOUS
10
143.87
20
-60.875
11
144.93
21
-60.875
0
LINE
8
BLACK
6
CONTINUOUS
10
144.93
20
-60.875
11
144.93
21
-61.525
0
LINE
8
BLACK
6
CONTINUOUS
10
147.13
20
-61.525
11
146.07
21
-61.525
0
LINE
8
BLACK
6
CONTINUOUS
10
146.07
20
-61.525
11
146.07
21
-60.875
0
LINE
8
BLACK
6
CONTINUOUS
10
146.07
20
-60.875
11
147.13
21
-60.875
0
LINE
8
BLACK
6
CONTINUOUS
10
147.13
20
-60.875
11
147.13
21
-61.525
0
LINE
8
BLACK
6
CONTINUOUS
10
142.923
20
-60.8989
11
142.967
21
-60.9245
0
LINE
8
BLACK
6
CONTINUOUS
10
142.967
20
-60.9245
11
143
21
-60.9637
0
LINE
8
BLACK
6
CONTINUOUS
10
143
20
-60.9637
11
143.02
21
-61.0375
0
LINE
8
BLACK
6
CONTINUOUS
10
143.02
20
-61.0375
11
143.02
21
-61.3325
0
LINE
8
BLACK
6
CONTINUOUS
10
143.02
20
-61.3325
11
143.011
21
-61.3829
0
LINE
8
BLACK
6
CONTINUOUS
10
143.011
20
-61.3829
11
142.985
21
-61.4273
0
LINE
8
BLACK
6
CONTINUOUS
10
142.985
20
-61.4273
11
142.946
21
-61.4602
0
LINE
8
BLACK
6
CONTINUOUS
10
142.946
20
-61.4602
11
142.873
21
-61.48
0
LINE
8
BLACK
6
CONTINUOUS
10
142.873
20
-61.48
11
142.528
21
-61.48
0
LINE
8
BLACK
6
CONTINUOUS
10
142.528
20
-61.48
11
142.477
21
-61.4711
0
LINE
8
BLACK
6
CONTINUOUS
10
142.477
20
-61.4711
11
142.433
21
-61.4455
0
LINE
8
BLACK
6
CONTINUOUS
10
142.433
20
-61.4455
11
142.4
21
-61.4062
0
LINE
8
BLACK
6
CONTINUOUS
10
142.4
20
-61.4062
11
142.38
21
-61.3325
0
LINE
8
BLACK
6
CONTINUOUS
10
142.38
20
-61.3325
11
142.38
21
-61.0375
0
LINE
8
BLACK
6
CONTINUOUS
10
142.38
20
-61.0375
11
142.389
21
-60.9871
0
LINE
8
BLACK
6
CONTINUOUS
10
142.389
20
-60.9871
11
142.415
21
-60.9427
0
LINE
8
BLACK
6
CONTINUOUS
10
142.415
20
-60.9427
11
142.454
21
-60.9098
0
LINE
8
BLACK
6
CONTINUOUS
10
142.454
20
-60.9098
11
142.528
21
-60.89
0
LINE
8
BLACK
6
CONTINUOUS
10
142.528
20
-60.89
11
142.873
21
-60.89
0
LINE
8
BLACK
6
CONTINUOUS
10
142.873
20
-60.89
11
142.923
21
-60.8989
0
LINE
8
BLACK
6
CONTINUOUS
10
149.798
20
-60.5889
11
149.842
21
-60.6145
0
LINE
8
BLACK
6
CONTINUOUS
10
149.842
20
-60.6145
11
149.875
21
-60.6537
0
LINE
8
BLACK
6
CONTINUOUS
10
149.875
20
-60.6537
11
149.895
21
-60.7275
0
LINE
8
BLACK
6
CONTINUOUS
10
149.895
20
-60.7275
11
149.895
21
-61.0725
0
LINE
8
BLACK
6
CONTINUOUS
10
149.895
20
-61.0725
11
149.886
21
-61.1229
0
LINE
8
BLACK
6
CONTINUOUS
10
149.886
20
-61.1229
11
149.86
21
-61.1673
0
LINE
8
BLACK
6
CONTINUOUS
10
149.86
20
-61.1673
11
149.821
21
-61.2002
0
LINE
8
BLACK
6
CONTINUOUS
10
149.821
20
-61.2002
11
149.748
21
-61.22
0
LINE
8
BLACK
6
CONTINUOUS
10
149.748
20
-61.22
11
149.452
21
-61.22
0
LINE
8
BLACK
6
CONTINUOUS
10
149.452
20
-61.22
11
149.402
21
-61.2111
0
LINE
8
BLACK
6
CONTINUOUS
10
149.402
20
-61.2111
11
149.358
21
-61.1855
0
LINE
8
BLACK
6
CONTINUOUS
10
149.358
20
-61.1855
11
149.325
21
-61.1462
0
LINE
8
BLACK
6
CONTINUOUS
10
149.325
20
-61.1462
11
149.305
21
-61.0725
0
LINE
8
BLACK
6
CONTINUOUS
10
149.305
20
-61.0725
11
149.305
21
-60.7275
0
LINE
8
BLACK
6
CONTINUOUS
10
149.305
20
-60.7275
11
149.314
21
-60.6771
0
LINE
8
BLACK
6
CONTINUOUS
10
149.314
20
-60.6771
11
149.34
21
-60.6327
0
LINE
8
BLACK
6
CONTINUOUS
10
149.34
20
-60.6327
11
149.379
21
-60.5998
0
LINE
8
BLACK
6
CONTINUOUS
10
149.379
20
-60.5998
11
149.452
21
-60.58
0
LINE
8
BLACK
6
CONTINUOUS
10
149.452
20
-60.58
11
149.748
21
-60.58
0
LINE
8
BLACK
6
CONTINUOUS
10
149.748
20
-60.58
11
149.798
21
-60.5889
0
LINE
8
BLACK
6
CONTINUOUS
10
148.828
20
-60.5889
11
148.872
21
-60.6145
0
LINE
8
BLACK
6
CONTINUOUS
10
148.872
20
-60.6145
11
148.905
21
-60.6537
0
LINE
8
BLACK
6
CONTINUOUS
10
148.905
20
-60.6537
11
148.925
21
-60.7275
0
LINE
8
BLACK
6
CONTINUOUS
10
148.925
20
-60.7275
11
148.925
21
-61.0725
0
LINE
8
BLACK
6
CONTINUOUS
10
148.925
20
-61.0725
11
148.916
21
-61.1229
0
LINE
8
BLACK
6
CONTINUOUS
10
148.916
20
-61.1229
11
148.89
21
-61.1673
0
LINE
8
BLACK
6
CONTINUOUS
10
148.89
20
-61.1673
11
148.851
21
-61.2002
0
LINE
8
BLACK
6
CONTINUOUS
10
148.851
20
-61.2002
11
148.778
21
-61.22
0
LINE
8
BLACK
6
CONTINUOUS
10
148.778
20
-61.22
11
148.482
21
-61.22
0
LINE
8
BLACK
6
CONTINUOUS
10
148.482
20
-61.22
11
148.432
21
-61.2111
0
LINE
8
BLACK
6
CONTINUOUS
10
148.432
20
-61.2111
11
148.388
21
-61.1855
0
LINE
8
BLACK
6
CONTINUOUS
10
148.388
20
-61.1855
11
148.355
21
-61.1462
0
LINE
8
BLACK
6
CONTINUOUS
10
148.355
20
-61.1462
11
148.335
21
-61.0725
0
LINE
8
BLACK
6
CONTINUOUS
10
148.335
20
-61.0725
11
148.335
21
-60.7275
0
LINE
8
BLACK
6
CONTINUOUS
10
148.335
20
-60.7275
11
148.344
21
-60.6771
0
LINE
8
BLACK
6
CONTINUOUS
10
148.344
20
-60.6771
11
148.37
21
-60.6327
0
LINE
8
BLACK
6
CONTINUOUS
10
148.37
20
-60.6327
11
148.409
21
-60.5998
0
LINE
8
BLACK
6
CONTINUOUS
10
148.409
20
-60.5998
11
148.482
21
-60.58
0
LINE
8
BLACK
6
CONTINUOUS
10
148.482
20
-60.58
11
148.778
21
-60.58
0
LINE
8
BLACK
6
CONTINUOUS
10
148.778
20
-60.58
11
148.828
21
-60.5889
0
LINE
8
BLACK
6
CONTINUOUS
10
132.036
20
-57.6651
11
132.111
21
-57.7085
0
LINE
8
BLACK
6
CONTINUOUS
10
132.111
20
-57.7085
11
132.167
21
-57.775
0
LINE
8
BLACK
6
CONTINUOUS
10
132.167
20
-57.775
11
132.2
21
-57.9
0
LINE
8
BLACK
6
CONTINUOUS
10
132.2
20
-57.9
11
132.2
21
-60.9
0
LINE
8
BLACK
6
CONTINUOUS
10
132.2
20
-60.9
11
132.185
21
-60.9855
0
LINE
8
BLACK
6
CONTINUOUS
10
132.185
20
-60.9855
11
132.142
21
-61.0607
0
LINE
8
BLACK
6
CONTINUOUS
10
132.142
20
-61.0607
11
132.075
21
-61.1165
0
LINE
8
BLACK
6
CONTINUOUS
10
132.075
20
-61.1165
11
131.95
21
-61.15
0
LINE
8
BLACK
6
CONTINUOUS
10
131.95
20
-61.15
11
130.85
21
-61.15
0
LINE
8
BLACK
6
CONTINUOUS
10
130.85
20
-61.15
11
130.764
21
-61.1349
0
LINE
8
BLACK
6
CONTINUOUS
10
130.764
20
-61.1349
11
130.689
21
-61.0915
0
LINE
8
BLACK
6
CONTINUOUS
10
130.689
20
-61.0915
11
130.633
21
-61.025
0
LINE
8
BLACK
6
CONTINUOUS
10
130.633
20
-61.025
11
130.6
21
-60.9
0
LINE
8
BLACK
6
CONTINUOUS
10
130.6
20
-60.9
11
130.6
21
-57.9
0
LINE
8
BLACK
6
CONTINUOUS
10
130.6
20
-57.9
11
130.615
21
-57.8145
0
LINE
8
BLACK
6
CONTINUOUS
10
130.615
20
-57.8145
11
130.658
21
-57.7393
0
LINE
8
BLACK
6
CONTINUOUS
10
130.658
20
-57.7393
11
130.725
21
-57.6835
0
LINE
8
BLACK
6
CONTINUOUS
10
130.725
20
-57.6835
11
130.85
21
-57.65
0
LINE
8
BLACK
6
CONTINUOUS
10
130.85
20
-57.65
11
131.95
21
-57.65
0
LINE
8
BLACK
6
CONTINUOUS
10
131.95
20
-57.65
11
132.036
21
-57.6651
0
LINE
8
BLACK
6
CONTINUOUS
10
144.93
20
-60.575
11
143.87
21
-60.575
0
LINE
8
BLACK
6
CONTINUOUS
10
143.87
20
-60.575
11
143.87
21
-59.925
0
LINE
8
BLACK
6
CONTINUOUS
10
143.87
20
-59.925
11
144.93
21
-59.925
0
LINE
8
BLACK
6
CONTINUOUS
10
144.93
20
-59.925
11
144.93
21
-60.575
0
LINE
8
BLACK
6
CONTINUOUS
10
147.13
20
-60.575
11
146.07
21
-60.575
0
LINE
8
BLACK
6
CONTINUOUS
10
146.07
20
-60.575
11
146.07
21
-59.925
0
LINE
8
BLACK
6
CONTINUOUS
10
146.07
20
-59.925
11
147.13
21
-59.925
0
LINE
8
BLACK
6
CONTINUOUS
10
147.13
20
-59.925
11
147.13
21
-60.575
0
LINE
8
BLACK
6
CONTINUOUS
10
142.923
20
-59.9289
11
142.967
21
-59.9545
0
LINE
8
BLACK
6
CONTINUOUS
10
142.967
20
-59.9545
11
143
21
-59.9937
0
LINE
8
BLACK
6
CONTINUOUS
10
143
20
-59.9937
11
143.02
21
-60.0675
0
LINE
8
BLACK
6
CONTINUOUS
10
143.02
20
-60.0675
11
143.02
21
-60.3625
0
LINE
8
BLACK
6
CONTINUOUS
10
143.02
20
-60.3625
11
143.011
21
-60.4129
0
LINE
8
BLACK
6
CONTINUOUS
10
143.011
20
-60.4129
11
142.985
21
-60.4573
0
LINE
8
BLACK
6
CONTINUOUS
10
142.985
20
-60.4573
11
142.946
21
-60.4902
0
LINE
8
BLACK
6
CONTINUOUS
10
142.946
20
-60.4902
11
142.873
21
-60.51
0
LINE
8
BLACK
6
CONTINUOUS
10
142.873
20
-60.51
11
142.528
21
-60.51
0
LINE
8
BLACK
6
CONTINUOUS
10
142.528
20
-60.51
11
142.477
21
-60.5011
0
LINE
8
BLACK
6
CONTINUOUS
10
142.477
20
-60.5011
11
142.433
21
-60.4755
0
LINE
8
BLACK
6
CONTINUOUS
10
142.433
20
-60.4755
11
142.4
21
-60.4362
0
LINE
8
BLACK
6
CONTINUOUS
10
142.4
20
-60.4362
11
142.38
21
-60.3625
0
LINE
8
BLACK
6
CONTINUOUS
10
142.38
20
-60.3625
11
142.38
21
-60.0675
0
LINE
8
BLACK
6
CONTINUOUS
10
142.38
20
-60.0675
11
142.389
21
-60.0171
0
LINE
8
BLACK
6
CONTINUOUS
10
142.389
20
-60.0171
11
142.415
21
-59.9727
0
LINE
8
BLACK
6
CONTINUOUS
10
142.415
20
-59.9727
11
142.454
21
-59.9398
0
LINE
8
BLACK
6
CONTINUOUS
10
142.454
20
-59.9398
11
142.528
21
-59.92
0
LINE
8
BLACK
6
CONTINUOUS
10
142.528
20
-59.92
11
142.873
21
-59.92
0
LINE
8
BLACK
6
CONTINUOUS
10
142.873
20
-59.92
11
142.923
21
-59.9289
0
LINE
8
BLACK
6
CONTINUOUS
10
149.783
20
-59.4889
11
149.827
21
-59.5145
0
LINE
8
BLACK
6
CONTINUOUS
10
149.827
20
-59.5145
11
149.86
21
-59.5538
0
LINE
8
BLACK
6
CONTINUOUS
10
149.86
20
-59.5538
11
149.88
21
-59.6275
0
LINE
8
BLACK
6
CONTINUOUS
10
149.88
20
-59.6275
11
149.88
21
-59.9725
0
LINE
8
BLACK
6
CONTINUOUS
10
149.88
20
-59.9725
11
149.871
21
-60.0229
0
LINE
8
BLACK
6
CONTINUOUS
10
149.871
20
-60.0229
11
149.845
21
-60.0673
0
LINE
8
BLACK
6
CONTINUOUS
10
149.845
20
-60.0673
11
149.806
21
-60.1002
0
LINE
8
BLACK
6
CONTINUOUS
10
149.806
20
-60.1002
11
149.732
21
-60.12
0
LINE
8
BLACK
6
CONTINUOUS
10
149.732
20
-60.12
11
149.438
21
-60.12
0
LINE
8
BLACK
6
CONTINUOUS
10
149.438
20
-60.12
11
149.387
21
-60.1111
0
LINE
8
BLACK
6
CONTINUOUS
10
149.387
20
-60.1111
11
149.343
21
-60.0855
0
LINE
8
BLACK
6
CONTINUOUS
10
149.343
20
-60.0855
11
149.31
21
-60.0463
0
LINE
8
BLACK
6
CONTINUOUS
10
149.31
20
-60.0463
11
149.29
21
-59.9725
0
LINE
8
BLACK
6
CONTINUOUS
10
149.29
20
-59.9725
11
149.29
21
-59.6275
0
LINE
8
BLACK
6
CONTINUOUS
10
149.29
20
-59.6275
11
149.299
21
-59.5771
0
LINE
8
BLACK
6
CONTINUOUS
10
149.299
20
-59.5771
11
149.325
21
-59.5327
0
LINE
8
BLACK
6
CONTINUOUS
10
149.325
20
-59.5327
11
149.364
21
-59.4998
0
LINE
8
BLACK
6
CONTINUOUS
10
149.364
20
-59.4998
11
149.438
21
-59.48
0
LINE
8
BLACK
6
CONTINUOUS
10
149.438
20
-59.48
11
149.732
21
-59.48
0
LINE
8
BLACK
6
CONTINUOUS
10
149.732
20
-59.48
11
149.783
21
-59.4889
0
LINE
8
BLACK
6
CONTINUOUS
10
148.813
20
-59.4889
11
148.857
21
-59.5145
0
LINE
8
BLACK
6
CONTINUOUS
10
148.857
20
-59.5145
11
148.89
21
-59.5538
0
LINE
8
BLACK
6
CONTINUOUS
10
148.89
20
-59.5538
11
148.91
21
-59.6275
0
LINE
8
BLACK
6
CONTINUOUS
10
148.91
20
-59.6275
11
148.91
21
-59.9725
0
LINE
8
BLACK
6
CONTINUOUS
10
148.91
20
-59.9725
11
148.901
21
-60.0229
0
LINE
8
BLACK
6
CONTINUOUS
10
148.901
20
-60.0229
11
148.875
21
-60.0673
0
LINE
8
BLACK
6
CONTINUOUS
10
148.875
20
-60.0673
11
148.836
21
-60.1002
0
LINE
8
BLACK
6
CONTINUOUS
10
148.836
20
-60.1002
11
148.762
21
-60.12
0
LINE
8
BLACK
6
CONTINUOUS
10
148.762
20
-60.12
11
148.468
21
-60.12
0
LINE
8
BLACK
6
CONTINUOUS
10
148.468
20
-60.12
11
148.417
21
-60.1111
0
LINE
8
BLACK
6
CONTINUOUS
10
148.417
20
-60.1111
11
148.373
21
-60.0855
0
LINE
8
BLACK
6
CONTINUOUS
10
148.373
20
-60.0855
11
148.34
21
-60.0463
0
LINE
8
BLACK
6
CONTINUOUS
10
148.34
20
-60.0463
11
148.32
21
-59.9725
0
LINE
8
BLACK
6
CONTINUOUS
10
148.32
20
-59.9725
11
148.32
21
-59.6275
0
LINE
8
BLACK
6
CONTINUOUS
10
148.32
20
-59.6275
11
148.329
21
-59.5771
0
LINE
8
BLACK
6
CONTINUOUS
10
148.329
20
-59.5771
11
148.355
21
-59.5327
0
LINE
8
BLACK
6
CONTINUOUS
10
148.355
20
-59.5327
11
148.394
21
-59.4998
0
LINE
8
BLACK
6
CONTINUOUS
10
148.394
20
-59.4998
11
148.468
21
-59.48
0
LINE
8
BLACK
6
CONTINUOUS
10
148.468
20
-59.48
11
148.762
21
-59.48
0
LINE
8
BLACK
6
CONTINUOUS
10
148.762
20
-59.48
11
148.813
21
-59.4889
0
LINE
8
BLACK
6
CONTINUOUS
10
141.731
20
-59.1882
11
141.797
21
-59.2262
0
LINE
8
BLACK
6
CONTINUOUS
10
141.797
20
-59.2262
11
141.846
21
-59.2844
0
LINE
8
BLACK
6
CONTINUOUS
10
141.846
20
-59.2844
11
141.875
21
-59.3937
0
LINE
8
BLACK
6
CONTINUOUS
10
141.875
20
-59.3937
11
141.875
21
-59.8312
0
LINE
8
BLACK
6
CONTINUOUS
10
141.875
20
-59.8312
11
141.862
21
-59.9061
0
LINE
8
BLACK
6
CONTINUOUS
10
141.862
20
-59.9061
11
141.824
21
-59.9719
0
LINE
8
BLACK
6
CONTINUOUS
10
141.824
20
-59.9719
11
141.766
21
-60.0207
0
LINE
8
BLACK
6
CONTINUOUS
10
141.766
20
-60.0207
11
141.656
21
-60.05
0
LINE
8
BLACK
6
CONTINUOUS
10
141.656
20
-60.05
11
141.144
21
-60.05
0
LINE
8
BLACK
6
CONTINUOUS
10
141.144
20
-60.05
11
141.069
21
-60.0368
0
LINE
8
BLACK
6
CONTINUOUS
10
141.069
20
-60.0368
11
141.003
21
-59.9988
0
LINE
8
BLACK
6
CONTINUOUS
10
141.003
20
-59.9988
11
140.954
21
-59.9406
0
LINE
8
BLACK
6
CONTINUOUS
10
140.954
20
-59.9406
11
140.925
21
-59.8312
0
LINE
8
BLACK
6
CONTINUOUS
10
140.925
20
-59.8312
11
140.925
21
-59.3937
0
LINE
8
BLACK
6
CONTINUOUS
10
140.925
20
-59.3937
11
140.938
21
-59.3189
0
LINE
8
BLACK
6
CONTINUOUS
10
140.938
20
-59.3189
11
140.976
21
-59.2531
0
LINE
8
BLACK
6
CONTINUOUS
10
140.976
20
-59.2531
11
141.034
21
-59.2043
0
LINE
8
BLACK
6
CONTINUOUS
10
141.034
20
-59.2043
11
141.144
21
-59.175
0
LINE
8
BLACK
6
CONTINUOUS
10
141.144
20
-59.175
11
141.656
21
-59.175
0
LINE
8
BLACK
6
CONTINUOUS
10
141.656
20
-59.175
11
141.731
21
-59.1882
  0
ENDSEC
  0
EOF
